Oops, an error
Loading. Please wait.

Mediocre Love Tab

124 views 1 this week
no commentswrite comment
1 2 3 4 5
2 more votes to show rating
add to favorites
launch autoscroll
font size
0
reset
how to read this tab
guitar tuner
Autoscroll
slow
fast
+/-
esc
set tempo
stop
Help us to improve Ultimate-Guitar.com Take our survey!
×
Author
Difficulty
intermediate
About this tab version
This is the first tab for this song. If you liked it please rate. If you have any possible corrections, comment below. Thanks. Was this info helpful? Yes No
-------------------------------------------------------------------------------------------------------------
                                  Balance and Composure - Mediocre Love 
-------------------------------------------------------------------------------------------------------------

Band: Balance and Composure
Song: Mediocre Love
Album: Light We Made
Track: 5

Tuning: Standard (E A D G B E)



[Intro]

  Guitar 1
E|-------------------------------------------|----------------------------------------------|
B|-------------------------------------------|----------------------------------------------|
G|--8~--10~---------8--------8--------8------|-----8~--10~---------8--------8--------8------|
D|---------------10---10--10---10--10---10~--|--10--------------10---10--10---10--10---10~--|
A|-------------------------------------------|----------------------------------------------|
E|-------------------------------------------|----------------------------------------------|

   Guitar 2
E|--8-------8-------8-------8-------11-------11-------11-------11--------|
B|--------9-------9-------9-------9--------9--------9--------9--------9--|
G|-----10------10------10------10-------10-------10-------10-------10----|
D|-----------------------------------------------------------------------| x2
A|-----------------------------------------------------------------------|
E|-----------------------------------------------------------------------|



[Verse]

*Only bass plays for a couple measures at first*

   Guitar 1   
E|-------------------------------------------|----------------------------------------------|
B|-------------------------------------------|----------------------------------------------|
G|--8~--10~---------8--------8--------8------|-----8~--10~---------8--------8--------8------|
D|---------------10---10--10---10--10---10~--|--10-------------------11--11---11--11---10~--|
A|-------------------------------------------|----------------------------------------------|
E|-------------------------------------------|----------------------------------------------|

   Guitar 2
E|--8-------8-------8-------8-------11-------11-------11-------11--------|
B|--------9-------9-------9-------9--------9--------9--------9--------9--|
G|-----10------10------10------10-------10-------10-------10-------10----|
D|-----------------------------------------------------------------------| x2
A|-----------------------------------------------------------------------|
E|-----------------------------------------------------------------------|



[Prechorus]

   Guitar 1
E|------------------------------------|
B|------------------------------------|
G|----------10~-----------------------|
D|--11~--------------10~--------------| x2
A|--------------11~----------8~--11~--|
E|------------------------------------|

   Guitar 2
E|----------------------------------------------------------------------|
B|------------------------9---------------------------------------------|
G|-------10~---------10------10~-----10-------10~--------------8--------|
D|--11-----------11--10~-----------------11-----------11--10-------10~--|
A|----------------------------------------------------------------------|
E|----------------------------------------------------------------------|



[Chorus]

   Guitar 1
E|-----------------------------------------------------------------------------|
B|-----------------------------------------------------------------------------|
G|-----------------------------------------------------------------------------|
D|------------------------------------10-10--10-10-10--10----------------------| x2
A|--8-8--8-8-8--8-11-11--11-11-11--11-8--8---8--8--8---8--11-11--11-11-11--11--|
E|--6-6--6-6-6--6-9--9---9--9--9---9----------------------9--9---9--9--9---9---|

   Guitar 2
E|-----------------------------------------------------|
B|-----------4------------4----------------------------|
G|-----5------------5------------------5------------5--|
D|--6-----6------6-----6---------6------------6--------| x2
A|----------------------------8-----8------8-----8-----|
E|-----------------------------------------------------|

   Guitar 3
E|------8-------8-------11-------11-------8-------8-------8--------8-----|
B|--------9-------9--------9--------9-------9-------9--------------------|
G|--10------10------10-------10-------10------10------10----10-10----10--|
D|-----------------------------------------------------------------------| x2
A|-----------------------------------------------------------------------|
E|-----------------------------------------------------------------------|



[Interlude]

  Guitar 1
E|-------------------------------------------|----------------------------------------------|
B|-------------------------------------------|----------------------------------------------|
G|--8~--10~---------8--------8--------8------|-----8~--10~---------8--------8--------8------|
D|---------------10---10--10---10--10---10~--|--10--------------10---10--10---10--10---10~--|
A|-------------------------------------------|----------------------------------------------|
E|-------------------------------------------|----------------------------------------------|

   Guitar 2
E|--8-------8-------8-------8-------11-------11-------11-------11--------|
B|--------9-------9-------9-------9--------9--------9--------9--------9--|
G|-----10------10------10------10-------10-------10-------10-------10----|
D|-----------------------------------------------------------------------| x2
A|-----------------------------------------------------------------------|
E|-----------------------------------------------------------------------|



[Verse]

*Only bass plays for a couple measures at first*

   Guitar 1   
E|-------------------------------------------|----------------------------------------------|
B|-------------------------------------------|----------------------------------------------|
G|--8~--10~---------8--------8--------8------|-----8~--10~---------8--------8--------8------|
D|---------------10---10--10---10--10---10~--|--10-------------------11--11---11--11---10~--|
A|-------------------------------------------|----------------------------------------------|
E|-------------------------------------------|----------------------------------------------|

   Guitar 2
E|--8-------8-------8-------8-------11-------11-------11-------11--------|
B|--------9-------9-------9-------9--------9--------9--------9--------9--|
G|-----10------10------10------10-------10-------10-------10-------10----|
D|-----------------------------------------------------------------------| x2
A|-----------------------------------------------------------------------|
E|-----------------------------------------------------------------------|



[Prechorus]

   Guitar 1
E|------------------------------------|
B|------------------------------------|
G|----------10~-----------------------|
D|--11~--------------10~--------------| x4
A|--------------11~----------8~--11~--|
E|------------------------------------|

   Guitar 2
E|----------------------------------------------------------------------|
B|------------------------9---------------------------------------------|
G|-------10~---------10------10~-----10-------10~--------------8--------|
D|--11-----------11--10~-----------------11-----------11--10-------10~--| x2
A|----------------------------------------------------------------------|
E|----------------------------------------------------------------------|



[Chorus]

   Guitar 1
E|-----------------------------------------------------------------------------|
B|-----------------------------------------------------------------------------|
G|-----------------------------------------------------------------------------|
D|------------------------------------10-10--10-10-10--10----------------------| x2
A|--8-8--8-8-8--8-11-11--11-11-11--11-8--8---8--8--8---8--11-11--11-11-11--11--|
E|--6-6--6-6-6--6-9--9---9--9--9---9----------------------9--9---9--9--9---9---|

   Guitar 2
E|-----------------------------------------------------|
B|-----------4------------4----------------------------|
G|-----5------------5------------------5------------5--|
D|--6-----6------6-----6---------6------------6--------| x2
A|----------------------------8-----8------8-----8-----|
E|-----------------------------------------------------|

   Guitar 3
E|------8-------8-------11-------11-------8-------8-------8--------8-----|
B|--------9-------9--------9--------9-------9-------9--------------------|
G|--10------10------10-------10-------10------10------10----10-10----10--|
D|-----------------------------------------------------------------------| x2
A|-----------------------------------------------------------------------|
E|-----------------------------------------------------------------------|



[Bridge]

   Guitar 1
E|-----------------------------------|
B|-----------------------------------|
G|-----------------------------------|
D|-----------------------------------| x8
A|--------3-4-4-4-4-4-4-4-3-------1--|
E|--1-1-1-------------------4-4-4----|

   Guitar 2
E|-----------------------------------|
B|------------------------1----------|
G|-----------------------------------|
D|--1-1-1---3-3-3-3-3-3-3---------1--| x8
A|--------3-----------------3-3-3----|
E|-----------------------------------|



[Prechorus]

   Guitar 1
E|------------------------------------|
B|------------------------------------|
G|----------10~-----------------------|
D|--11~--------------10~--------------| x2
A|--------------11~----------8~--11~--|
E|------------------------------------|

   Guitar 2
E|----------------------------------------------------------------------|
B|------------------------9---------------------------------------------|
G|-------10~---------10------10~-----10-------10~--------------8--------|
D|--11-----------11--10~-----------------11-----------11--10-------10~--|
A|----------------------------------------------------------------------|
E|----------------------------------------------------------------------|



[Chorus]

   Guitar 1
E|-----------------------------------------------------------------------------|
B|-----------------------------------------------------------------------------|
G|-----------------------------------------------------------------------------|
D|------------------------------------10-10--10-10-10--10----------------------| x4
A|--8-8--8-8-8--8-11-11--11-11-11--11-8--8---8--8--8---8--11-11--11-11-11--11--|
E|--6-6--6-6-6--6-9--9---9--9--9---9----------------------9--9---9--9--9---9---|

   Guitar 2
E|-----------------------------------------------------|
B|-----------4------------4----------------------------|
G|-----5------------5------------------5------------5--|
D|--6-----6------6-----6---------6------------6--------| x4
A|----------------------------8-----8------8-----8-----|
E|-----------------------------------------------------|

   Guitar 3
E|------8-------8-------11-------11-------8-------8-------8--------8-----|
B|--------9-------9--------9--------9-------9-------9--------------------|
G|--10------10------10-------10-------10------10------10----10-10----10--|
D|-----------------------------------------------------------------------| x4
A|-----------------------------------------------------------------------|
E|-----------------------------------------------------------------------|



[Outro]

  Guitar 1
E|-------------------------------------------|----------------------------------------------|
B|-------------------------------------------|----------------------------------------------|
G|--8~--10~---------8--------8--------8------|-----8~--10~---------8--------8--------8------|
D|---------------10---10--10---10--10---10~--|--10--------------10---10--10---10--10---10~--|
A|-------------------------------------------|----------------------------------------------|
E|-------------------------------------------|----------------------------------------------|

   Guitar 2
E|--8-------8-------8-------8-------11-------11-------11-------11--------|
B|--------9-------9-------9-------9--------9--------9--------9--------9--|
G|-----10------10------10------10-------10-------10-------10-------10----|
D|-----------------------------------------------------------------------| x2
A|-----------------------------------------------------------------------|
E|-----------------------------------------------------------------------|


*Bass finishes out the song*



[END]



*************************

|  ~    held note

*************************
Suggest correction
Give kudos to tab author, rate the tab!
1 2 3 4 5
comments
print report bad tab
guest
You may want to rate the tab now too:
select rating
Wanna post a correction for this tab? Suggest correction