Oops, an error
Loading. Please wait.

Midnight Zone Tab

328 views 24 this week
no commentswrite comment
1 2 3 4 5
x 3
add to favorites
launch autoscroll
font size
0
reset
how to read this tab
guitar tuner
Autoscroll
slow
fast
+/-
esc
set tempo
stop
Help us to improve Ultimate-Guitar.com Take our survey!
×
Author
Difficulty
intermediate
About this tab version
This is the first version of this tab. If you enjoyed it, please rate or leave a comment. Thanks. Was this info helpful? Yes No
-------------------------------------------------------------------------------------------------------------
                                  Balance and Composure - Midnight Zone   
-------------------------------------------------------------------------------------------------------------

Band: Balance and Composure
Song: Midnight Zone
Album: Light We Made
Track: 1

Tuning: Standard (E A D G B E)



[Intro/Verse1]

E|--9~---|--9~---------------|
B|--9~---|-----9~----9~------|
G|--9~---|--------------9~---| x2
D|--11~--|-------------------|
A|-------|-------------------|
E|-------|-------------------|

E|-------------------------------------------|---------------------------------------------------|
B|-------------------------------------------|---------------------------------------------------|
G|--9----9----9----9----9----9----9----9-----|--11----11----11----11----11----11----11----11-----|
D|----11---11---11---11---11---11---11---11--|-----11----11----11----11----11----11----11----11--|
A|-------------------------------------------|---------------------------------------------------|
E|-------------------------------------------|---------------------------------------------------|

E|------------------------------------------|------------------------------------------------------|
B|--9----9----9----9----9----9----9----9----|-----------------------------------------10p9---------|
G|------------------------------------------|--11----11----11----11----9----9----9---------9-------|
D|----11---11---11---11---11---11---11---11-|-----11----11----11----11---11---11---11--------9h11--|
A|------------------------------------------|------------------------------------------------------|
E|------------------------------------------|------------------------------------------------------|


 
[Chorus1]

   Guitar 1
E|-------------------------------------------|---------------------------------------------------|
B|-------------------------------------------|---------------------------------------------------|
G|--9----9----9----9----9----9----9----9-----|--11----11----11----11----11----11----11----11-----|
D|----11---11---11---11---11---11---11---11--|-----11----11----11----11----11----11----11----11--|
A|-------------------------------------------|---------------------------------------------------|
E|-------------------------------------------|---------------------------------------------------|
 |
E|------------------------------------------|------------------------------------------------------|
B|--9----9----9----9----9----9----9----9----|-----------------------------------------10p9---------|
G|------------------------------------------|--11----11----11----11----9----9----9---------9-------|
D|----11---11---11---11---11---11---11---11-|-----11----11----11----11---11---11---11--------9h11--|
A|------------------------------------------|------------------------------------------------------|
E|------------------------------------------|------------------------------------------------------|

   Guitar 2
E|-------------------------------------------|---------------------------------|
B|---------------9----9----9----9----9----9--|---------------------------------|
G|-----9----9--------------------------------|-----9----9----9----9---9~-------| x2
D|--11---11---11---11---11---11---11---11----|--11---11---11---11----------9~--|
A|-------------------------------------------|---------------------------------|
E|-------------------------------------------|---------------------------------|



[Verse2]

E|--9~---|
B|--9~---|
G|--9~---| Strummed at 1:48
D|--11~--|
A|-------|
E|-------|



[Chorus2]

   Guitar 1
E|-------------------------------------------|---------------------------------------------------|
B|-------------------------------------------|---------------------------------------------------|
G|--9----9----9----9----9----9----9----9-----|--11----11----11----11----11----11----11----11-----|
D|----11---11---11---11---11---11---11---11--|-----11----11----11----11----11----11----11----11--|
A|-------------------------------------------|---------------------------------------------------|
E|-------------------------------------------|---------------------------------------------------|
 |
E|------------------------------------------|------------------------------------------------------|
B|--9----9----9----9----9----9----9----9----|-----------------------------------------10p9---------|
G|------------------------------------------|--11----11----11----11----9----9----9---------9-------|
D|----11---11---11---11---11---11---11---11-|-----11----11----11----11---11---11---11--------9h11--|
A|------------------------------------------|------------------------------------------------------|
E|------------------------------------------|------------------------------------------------------|

   Guitar 2
E|-------------------------------------------|---------------------------------|
B|---------------9----9----9----9----9----9--|---------------------------------|
G|-----9----9--------------------------------|-----9----9----9----9---9~-------| x2
D|--11---11---11---11---11---11---11---11----|--11---11---11---11----------9~--|
A|-------------------------------------------|---------------------------------|
E|-------------------------------------------|---------------------------------|



[Bridge]

   Guitar 1
E|------------------------------|------------------------------|
B|------------------------------|------------------------------|
G|------------------------------|------------------------------|
D|----------------------7p6--6--|------------4----4----7p6--6--| x4
A|--7p4--7p4--7p4--7p4----------|--7p4--7p4----4----4----------|
E|------------------------------|------------------------------|
     
   Guitar 2
E|-------------------------------------------|
B|--7---5--------------5--------7--7-5--5----|
G|----------6----4h6p4----4~--------------6--| x4
D|-------------------------------------------|
A|-------------------------------------------|
E|-------------------------------------------|



[Chorus3/Outro]

   Guitar 1
E|-------------------------------------------|---------------------------------------------------|
B|-------------------------------------------|---------------------------------------------------|
G|--9----9----9----9----9----9----9----9-----|--11----11----11----11----11----11----11----11-----|
D|----11---11---11---11---11---11---11---11--|-----11----11----11----11----11----11----11----11--|
A|-------------------------------------------|---------------------------------------------------|
E|-------------------------------------------|---------------------------------------------------|
 |                                                                                                   x2
E|------------------------------------------|------------------------------------------------------|
B|--9----9----9----9----9----9----9----9----|-----------------------------------------10p9---------|
G|------------------------------------------|--11----11----11----11----9----9----9---------9-------|
D|----11---11---11---11---11---11---11---11-|-----11----11----11----11---11---11---11--------9h11--|
A|------------------------------------------|------------------------------------------------------|
E|------------------------------------------|------------------------------------------------------|

   Guitar 2
E|-------------------------------------------|---------------------------------|
B|---------------9----9----9----9----9----9--|---------------------------------|
G|-----9----9--------------------------------|-----9----9----9----9---9~-------| x4
D|--11---11---11---11---11---11---11---11----|--11---11---11---11----------9~--|
A|-------------------------------------------|---------------------------------|
E|-------------------------------------------|---------------------------------|



[END]



*************************

|  ~    held note
|  p    pull off
|  h    hammer on

*************************
Suggest correction
Give kudos to tab author, rate the tab!
1 2 3 4 5
comments
print report bad tab
guest
You may want to rate the tab now too:
select rating
Wanna post a correction for this tab? Suggest correction