Oops, an error
Loading. Please wait.

Tiny Raindrop Chords

13,156 views 69 this week
7 commentsread comments
1 2 3 4 5
excellent!
x 15
add to favorites
launch autoscroll
font size
0
reset
transpose
0
reset
simplify chords
display chords
guitar tuner
Autoscroll
slow
fast
+/-
esc
set tempo
stop
Help us to improve Ultimate-Guitar.com Take our survey!
×
Author
Difficulty
-------------------------------------------------------------------------------
                             TINY RAINDROP - Balance & Composure
-------------------------------------------------------------------------------

this version is super basic chords!

Tuning: EADGBe




(Play D like this: x5403x)

C                                      D
            I'll take you on a drive
                                    C
Like gardens filled with mirrors
                               D
Lay back eyes open wide
                                C                 CC CC CC
Through alleys we're disappearing

                           D
Come close, stay far
                       C
I'll be your tiny raindrop
                 D
I fall down now

You left me feeling shameful

e|----------------------------------------------|
B|--------------------------3-0-----------------|
G|----4----0-4h5p4--0---------------------------|
D|--2-------------------------------------------|        x4
A|-3----3-0--------0-0--2-----------------------|
E|---------------------0------------------------|
                                                                 Em7
Even if I could I would never let you know
C                                                Em7
So come with me I'll buy you a raincoat
C                                           G
Stay with me I'm sick of this shameful
C                                          Em7
Head of mine I'm lost in its tangles
  A                                       Em7
I need you on my garments

C                            D
Come at me horrid eyes
                             C
That seep into my system
                            D
Push all intent on fire
                                           CC CC CC
The things we think we're missing

                     D                            C
Cause it's all fine; a pillow and a blanket
                              D
Take your precious time, staring at the ceiling

e|----------------------------------------------|
B|----------------------------------------------|
G|----4----0-4h5p4--0-----3-0-------------------|
D|--2-------------------------------------------|        x4
A|-3----3-0--------0-0--2-----------------------|
E|---------------------0------------------------|
                                                            Em7
Even if I could I would never let you go,

C                                                Em7
So come with me I'll buy you a raincoat
C                                           G
Stay with me I'm sick of this shameful
C                                          Em7
Head of mine I'm lost in its tangles
  A                                       Em7
I need you on my garments


C                                                Em7
So come with me I'll buy you a raincoat
C                                           G
Stay with me I'm sick of this shameful
C                                          Em7
Head of mine I'm lost in its tangles
  A                                       Em7
I need you on my garments

OUTRO

Em7

e|-----------------------------------------------------------------------------|
B|--5-3-0--5-3-0--5-3-0--5-3-0-------------------------------------------------|
G|-----------------------------0--4b-0-----------------------------------------|
D|-----------------------------------------------------------------------------|
A|-----------------------------------------------------------------------------|
E|-----------------------------------------------------------------------------|
Suggest correction
comments
print report bad tab
7 comments total. Showing first comments.
+3 reply
brock30 73 wrote on January 30 2014, 12:59 pm

Just a couple little mistakes, other than this good job!
e|----------------------------------------------|
B|------------------------3-0-------------------|
G|----4----0-4b-----0---------------------------|
D|--2-------------------------------------------| x4
A|-3----3-0--------0-0--2-----------------------|
E|---------------------0------------------------|

e|----------------------------------------------------------------------|
B|--5-3-0----5-3-0-----5-3-0-----5-3-0----------------------------------|
G|--------4b-------4b---------4b-------0--4b-0--------------------------|
D|----------------------------------------------------------------------|
A|----------------------------------------------------------------------|
E|----------------------------------------------------------------------|

0 reply
kenanphilips 98 wrote on February 3 2014, 05:22 pm

I think the A on the chorus is an Am

+1 reply
halfamatt1 10 wrote on February 7 2014, 06:28 pm

For the A, I just keep my 2 fingers on the D and G strings unlike a normal A which includes the B string, and leave the rest blank. It seems to sound right or close to it. An A minor in place of the A just doesn't sound right at all.

guest
You may want to rate the tab now too:
select rating
Wanna post a correction for this tab? Suggest correction