Oops, an error
Loading. Please wait.

Slow Return Acoustic tab

by Balkans
403 views 15 this week
no commentswrite comment
1 2 3 4 5
3 more votes to show rating
add to favorites
×
Save as Personal and add changes to this tab that will be seen only by you. Learn more ›
×
You can save this tab as Personal to edit and correct it or add notes. All changes will be seen only by you. Learn more »
launch autoscroll
font size
0
reset
how to read this tab
guitar tuner
edit
Autoscroll
slow
fast
+/-
esc
set tempo
stop
Author
Difficulty
Taken from: https://youtu.be/xg4HFXnsKFk?list=PLd9bn5plSXwEOvUtdzhA6fDYgpkFwO5aT

[Verse]

   E4  G/D   E9   D
e|-x----x----x----10-------------------------|
B|-7----x----12---10-------------------------|
G|-9----4----11---11-------------------------|
D|-10---5----10---12-------------------------|
A|------5----9----12-------------------------|
E|------x---------10-------------------------|


[Chorus]

   G  D7   C       
e|-------------------------------------------|
B|-------------------------------------------|
G|-4--11---9---9-------------9---------------|
D|-5--10---10--10---9---12---10--------------|
A|-5--12---10--10---9---12---10--------------|
E|-3--10---8---8----7---10---8---------------|


[Verse]

Doctor wont you help?
Oh, forever the eyes 
comes down and slow
Oh, it glitters through you 
to come and see
Oh, but all through the fall
I'll come and go


[Chorus]

Oh, you ask me again, 
Come in again, you're such a sight.
Oh
Said not enough, but still you cry
Oh
Only all by yourself
Hold it all by yourself


[Verse]

Oh, little kid what you wanted to be
It would have taken ages, ages
I saw a statue in the garden,
Oh, it was grey
Covered in ice, it wasn't touched at all(?), then she fell
Little girl what you wanted to be
It would have taken ages
Oh no


[Verse]

Come in again, you're such a sight.
Oh
Said not enough, but still you cry
Oh
Hold it all by yourself
Hold it all by yourself


Chords by: 319Vegeta @ youtube
Lyrics by: MoriKAshi @ Youtube
Suggest correction
Creating personal tab
Creating personal tab
You can edit any tab online and save it as your Personal.

You can edit, replace or remove any tab part or add personal notes – all changes will be seen only by you.

Personal tabs can be accessed anytime from any device, even offline.
Learn more »
Give kudos to tab author, rate the tab!
1 2 3 4 5
comments
print report bad tab
guest
You may want to rate the tab now too:
select rating
Wanna post a correction for this tab? Suggest correction