Oops, an error
Loading. Please wait.

Its Nice To Be Alive bass

2,273 views 6 this week
1 commentread comment
1 2 3 4 5
x 6
add to favorites
×
Save as Personal and add changes to this tab that will be seen only by you. Learn more ›
×
You can save this tab as Personal to edit and correct it or add notes. All changes will be seen only by you. Learn more »
launch autoscroll
font size
0
reset
guitar tuner
edit
Autoscroll
slow
fast
+/-
esc
set tempo
stop
Author
Difficulty
Title: It's Nice To Be Alive
Artist: Ball Park Music
Album: Happiness and Surrounding Suburbs 

Tabbed by Hazel (lezahtherock). Email: latetoo00@hotmail.com

Tuning: Standard

"Go."

 |1 + 2 + 3 + 4 + |1 + 2 + 3 + 4 + |1 + 2 + 3 + 4 + |1 + 2 + 3 + 4 + |
G|----------------|----------------|----------------|----------------|
D|6---------6-8-6-|5---------5-----|------------5-6-|----------------|
A|----------------|------------8-6-|8---------8-----|4-------6-------| x2
E|----------------|----------------|----------------|----------------|

Verse 1

 |1 + 2 + 3 + 4 + |1 + 2 + 3 + 4 + |1 + 2 + 3 + 4 + |1 + 2 + 3 + 4 + |
G|----------------|----------------|----------------|----------------|
D|----------------|----------------|----------------|5---------------|
A|----------------|4---3-----------|6------------68-|------8-6-------|
E|4---------------|--------6---4---|----------------|----------------|

 |1 + 2 + 3 + 4 + |1 + 2 + 3 + 4 + |1 + 2 + 3 + 4 + |1 + 2 + 3 + 4 + |
G|----------------|----------------|----------------|----------------|
D|----------------|----------------|----------------|5-----6-8-------|
A|----------------|4---3-----------|6-------------8-|----------------|
E|4---------------|--------6---4---|----------------|----------------|

 |1 + 2 + 3 + 4 + |1 + 2 + 3 + 4 + |1 + 2 + 3 + 4 + |1 + 2 + 3 + 4 + |
G|----------------|----------------|----------------|----------------|
D|----------------|----------------|----------------|----------------|
A|----------------|----------------|----------------|6666-6-6--6-8-6-|
E|4---------------|----------------|----------------|----------------|

 |1 + 2 + 3 + 4 + |1 + 2 + 3 + 4 + |1 + 2 + 3 + 4 + |1 + 2 + 3 + 4 + |
G|----------------|----------------|----------------|----------------|
D|----------------|----------------|----------------|----------------|
A|----------------|3---------------|----------------|6--6--6---------|
E|4---------------|----------------|6---------------|----------------|

Chorus

 |1 + 2 + 3 + 4 + |1 + 2 + 3 + 4 + |1 + 2 + 3 + 4 + |1 + 2 + 3 + 4 + |
G|----------------|----------------|----------------|----------------|
D|6---------6-8-6-|5---------5-----|------------5-6-|----------------|
A|----------------|------------8-6-|8---------8-----|4-------6-------| x2
E|----------------|----------------|----------------|----------------|

Verse 2

 |1 + 2 + 3 + 4 + |1 + 2 + 3 + 4 + |1 + 2 + 3 + 4 + |1 + 2 + 3 + 4 + |
G|----------------|----------------|----------------|----------------|
D|----------------|----------------|----------------|5-----6-8-------|
A|----------------|4---3-----------|6------------8--|----------------|
E|4---------------|--------6---4---|----------------|----------------|

 |1 + 2 + 3 + 4 + |1 + 2 + 3 + 4 + |1 + 2 + 3 + 4 + |1 + 2 + 3 + 4 + |
G|----------------|----------------|----------------|----------------|
D|----------------|----------------|----------------|5-----6-8-------|
A|----------------|4---3-----------|6------------8--|----------------|
E|4---------------|--------6---4---|----------------|----------------|

 |1 + 2 + 3 + 4 + |1 + 2 + 3 + 4 + |1 + 2 + 3 + 4 + |1 + 2 + 3 + 4 + |
G|----------------|----------------|----------------|----------------|
D|----------------|----------------|----------------|----------------|
A|----------------|----------------|----------------|6666-6-6--6-8-6-|
E|4---------------|----------------|----------------|----------------|

 |1 + 2 + 3 + 4 + |1 + 2 + 3 + 4 + |1 + 2 + 3 + 4 + |1 + 2 + 3 + 4 + |
G|----------------|----------------|----------------|----------------|
D|----------------|----------------|----------------|----------------|
A|----------------|3---------------|----------------|6--6--6---------|
E|4---------------|----------------|6---------------|----------------|

Chorus

 |1 + 2 + 3 + 4 + |1 + 2 + 3 + 4 + |1 + 2 + 3 + 4 + |1 + 2 + 3 + 4 + |
G|----------------|----------------|----------------|----------------|
D|6---------6-8-6-|5---------5-----|------------5-6-|----------------|
A|----------------|------------8-6-|8---------8-----|4-------6-------| x2
E|----------------|----------------|----------------|----------------|

Bridge

 |1 + 2 + 3 + 4 + |1 + 2 + 3 + 4 + |1 + 2 + 3 + 4 + |1 + 2 + 3 + 4 + |
G|----------------|----------------|----------------|----------------|
D|----------------|----------------|----------------|5-----6-8-------|
A|----------------|4---3-----------|6------------68-|----------------|
E|4---------------|--------6---4---|----------------|----------------|

 |1 + 2 + 3 + 4 + |1 + 2 + 3 + 4 + |1 + 2 + 3 + 4 + |1 + 2 + 3 + 4 + |
G|----------------|----------------|----------------|----------------|
D|----------------|----------------|----------------|5---6---8-------|
A|----------------|4---3-----------|6---------6--8--|----------------|
E|4---------------|--------6---4---|----------------|----------------|

Chorus (after acoustic guitar)

 |1 + 2 + 3 + 4 + |1 + 2 + 3 + 4 + |1 + 2 + 3 + 4 + |1 + 2 + 3 + 4 + |
G|----------------|----------------|----------------|----------------|
D|6---------6-8-6-|5---------5-----|------------5-6-|----------------|
A|----------------|------------8-6-|8---------8-----|4-------6-------| 
E|----------------|----------------|----------------|----------------|

 |1 + 2 + 3 + 4 + |1 + 2 + 3 + 4 + |1 + 2 + 3 + 4 + |
G|----------------|----------------|----------------|
D|----------------|----------------|----------------|
A|4-------6-------|4-------6-------|----------------|
E|----------------|----------------|4---------------|
Suggest correction
Creating personal tab
Creating personal tab
You can edit any tab online and save it as your Personal.

You can edit, replace or remove any tab part or add personal notes – all changes will be seen only by you.

Personal tabs can be accessed anytime from any device, even offline.
Learn more »
comments
print report bad tab
1 comment total.
0 reply
bassistman 10 Jul 27, 2012 11:47 PM

Thanks! This is great! If you have any more tabs by these guys please upload them!

guest
You may want to rate the tab now too:
select rating
Wanna post a correction for this tab? Suggest correction