Oops, an error
Loading. Please wait.

Nihilist Party Anthem tab

1,586 views 21 this week
1 commentread comment
1 2 3 4 5
x 3
add to favorites
×
Save as Personal and add changes to this tab that will be seen only by you. Learn more ›
×
You can save this tab as Personal to edit and correct it or add notes. All changes will be seen only by you. Learn more »
launch autoscroll
font size
0
reset
how to read this tab
guitar tuner
edit
Autoscroll
slow
fast
+/-
esc
set tempo
stop
Ok so the lyrics haven't been released yet but I figured I'd just post the chords now anyway
so people can play along with it!!

The song revolves around the same 5 chord progression with that cool strumming pattern but in the chorus
an extra D chord is added before the G

Verse:
     
     C    Am  
e|---0-----0-------|
B|---1-----1-------|
G|---0-----2-------|
D|---2-----2-------|
A|---3-----0-------|
E|---0-------------|

     F     Em  
e|---1-----0-------|
B|---1-----0-------|
G|---2-----0-------|
D|---3-----2-------|
A|---3-----2-------|
E|---1-----0-------|

     G       
e|---3---|
B|---3---|
G|---0---|
D|---0---|
A|---2---|
E|---3---|

Chorus:
     
     C    Am  
e|---0-----0-------|
B|---1-----1-------|
G|---0-----2-------|
D|---2-----2-------|
A|---3-----0-------|
E|---0-------------|

     F     Em  
e|---1-----0-------|
B|---1-----0-------|
G|---2-----0-------|
D|---3-----2-------|
A|---3-----2-------|
E|---1-----0-------|

     D     G  
e|---2-----3-------|
B|---3-----3-------|
G|---2-----0-------|
D|---0-----0-------|
A|---0-----2-------|
E|---------3-------|

            
            
Suggest correction
Creating personal tab
Creating personal tab
You can edit any tab online and save it as your Personal.

You can edit, replace or remove any tab part or add personal notes – all changes will be seen only by you.

Personal tabs can be accessed anytime from any device, even offline.
Learn more »
Give kudos to tab author, rate the tab!
1 2 3 4 5
comments
print report bad tab
1 comment total.
0 reply
bethy-ht 10 Aug 15, 2016 08:56 PM

i'm pretty sure thats a d minor there buddy

guest
You may want to rate the tab now too:
select rating
Wanna post a correction for this tab? Suggest correction