Oops, an error
Loading. Please wait.

Lost At Sea tab

1,534 views 6 this week
2 commentsread comments
1 2 3 4 5
x 3
add to favorites
×
Save as Personal and add changes to this tab that will be seen only by you. Learn more ›
×
You can save this tab as Personal to edit and correct it or add notes. All changes will be seen only by you. Learn more »
launch autoscroll
font size
0
reset
how to read this tab
guitar tuner
edit
Autoscroll
slow
fast
+/-
esc
set tempo
stop
Author
Difficulty
Great song by a great band. I'm not positive about the intro but the chords are all correct.
_____________________________________________________________________________
                            Ballyhoo!: Lost at Sea
_____________________________________________________________________________

                                    Intro
----4-------8---6---4---8---6-------8---6---4-------6---4---3---4------------|
-----------------------------------------------------------------------------|
-----------------------------------------------------------------------------|
-----------------------------------------------------------------------------|
-----------------------------------------------------------------------------|
-----------------------------------------------------------------------------|

                                    Verse
----4---4---4---4------x---x---x---x------x---x---x---x------4---4---4---4---|
----4---4---4---4------8---8---8---8------6---6---6---6------4---4---4---4---|
----5---5---5---5------8---8---8---8------6---6---6---6------5---5---5---5---|
----6---6---6---6------8---8---8---8------6---6---6---6------6---6---6---6---|
----6---6---6---6------6---6---6---6------4---4---4---4------6---6---6---6---|
----4---4---4---4------6---6---6---6------4---4---4---4------4---4---4---4---|

                                    Chorus
----x---x---x---x------4---4---4---4------8---8---8---8------x---x---x---x---|
----6---6---6---6------5---5---5---5------9---9---9---9------8---8---8---8---|
----6---6---6---6------6---6---6---6-----10--10--10--10------8---8---8---8---|
----6---6---6---6------6---6---6---6-----10--10--10--10------8---8---8---8---|
----4---4---4---4------4---4---4---4------8---8---8---8------6---6---6---6---|
----4---4---4---4------4---4---4---4------8---8---8---8------6---6---6---6---|


                              Tabbed by Jack Brown
                                      410
                                   Inebriated
Suggest correction
Creating personal tab
Creating personal tab
You can edit any tab online and save it as your Personal.

You can edit, replace or remove any tab part or add personal notes – all changes will be seen only by you.

Personal tabs can be accessed anytime from any device, even offline.
Learn more »
Give kudos to tab author, rate the tab!
1 2 3 4 5
comments
print report bad tab
2 comments total.
0 reply
Ethan_Glaud 272 Jun 04, 2014 12:58 PM

Spot on man.

0 reply
gregorypaul88 10 Nov 24, 2014 04:34 AM

Modified the Intro

Intro
----8-------8---6---4---/8---6-------8---6---4-------6---4-------------------|
------------------------------------------------------------6---4------------|
-----------------------------------------------------------------------------|
-----------------------------------------------------------------------------|
-----------------------------------------------------------------------------|
-----------------------------------------------------------------------------|

And the Chorus 2nd chord

----x---x---x---x------4---4---4---4------8---8---8---8------x---x---x---x---|
----6---6---6---6------4---4---4---4------9---9---9---9------8---8---8---8---|
----6---6---6---6------5---5---5---5-----10--10--10--10------8---8---8---8---|
----6---6---6---6------6---6---6---6-----10--10--10--10------8---8---8---8---|
----4---4---4---4------6---6---6---6------8---8---8---8------6---6---6---6---|
----4---4---4---4------4---4---4---4------8---8---8---8------6---6---6---6---|

guest
You may want to rate the tab now too:
select rating
Wanna post a correction for this tab? Suggest correction