Oops, an error
Loading. Please wait.

Blues For Rosann bass

220 views 1 this week
no commentswrite comment
1 2 3 4 5
1 last vote to show rating
add to favorites
×
Save as Personal and add changes to this tab that will be seen only by you. Learn more ›
×
You can save this tab as Personal to edit and correct it or add notes. All changes will be seen only by you. Learn more »
launch autoscroll
font size
0
reset
guitar tuner
edit
Autoscroll
slow
fast
+/-
esc
set tempo
stop

--------------------------------------------------------------------------
                                          Artist - Balthazar
                                         ********************
                                        Song - Blues For Rosann   
                                       *************************
                                        Album - Applause (2010) 
                                       *************************
                                          Tabbed By - Ayreon77
                                         **********************
--------------------------------------------------------------------------
Tuning = Standard             



INTRO
******
G|-----|-------|-----|--------|-----|----------|--------|-----|-------|-----|--------|-----|----------|-----|
D|-5~~-|-------|-----|--------|-----|----------|-5------|-5~~-|-------|-----|--------|-----|----------|-5~~-|
A|-----|-5-8-8-|-----|-5--6-6-|-----|---8-8--5-|----0-5-|-----|-5-8-8-|-----|-5--6-6-|-----|---8-8--5-|-----|
E|-----|-------|-8~~-|--------|-8~~-|-8--------|--------|-----|-------|-8~~-|--------|-8~~-|-8--------|-----|


-------------------------
00:31
VERSE 1
********
Look at us now we got this far.................        Would you swim with me?.....................
G|-----|-------|-----|--------|-----|----------|--------|-----|-------|-----|--------|-----|----------|-----|
D|-5~~-|-------|-----|--------|-----|----------|-5------|-5~~-|-------|-----|--------|-----|----------|-5~~-|
A|-----|-5-8-8-|-----|-5--6-6-|-----|---8-8--5-|----0-5-|-----|-5-8-8-|-----|-5--6-6-|-----|---8-8--5-|-----|
E|-----|-------|-8~~-|--------|-8~~-|-8--------|--------|-----|-------|-8~~-|--------|-8~~-|-8--------|-----|


-------------------------
01:02
PRE CHORUS
***********
I've heard the jugglers who threw me here  Return this day next year 
G|--------------------------------7-------|--12---10-------8----7-|
D|-------------5--------7---8-------------|------------8----------|
A|-----------------------------------6----|-----------------------|
E|----------------------------------------|-----------------------|


-------------------------
01:18
CHORUS
*******
I...   I felt like shit before
G|-----|-------|-----|--------|----|----------|-----------|------s-|-----|----|--------|----|----------|-----|
D|-5~~-|-------|-----|--------|----|----------|-5---------|---5-5\-|-----|----|--------|----|----------|-5~~-|
A|-----|-5-8-8-|-----|-5--6-6-|----|---8-8--5-|----0-5--5-|-5------|-5-8-|----|-5--6-6-|----|---8-8--5-|-----|
E|-----|-------|-8~~-|--------|-8~~|-8--------|-----------|--------|-----|-8~~|--------|-8~~|-8--------|-----|


-------------------------
01:49
VERSE 2
********
How many friends should I sleep with in here.........    Now the gambler took my part
G|-----|-------|-------|---------|-----------|----------|--------------------------------|
D|-5~~-|-------|-------|---------|-----------|----------|--------5-------7-------8----10-|
A|-----|-5-8-8-|-8-7~~-|-5-6-5-6-|-5-6-5-----|---8-8--5-|----5---------------------------|
E|-----|-------|-------|---------|-------8~~-|-8--------|--------------------------------|

Would you swim with me?.......   I'd be thrilled honestly
G|---|---------|-------------------|---------|-----|--------|------|
D|-5-|---------|-------------------|---------|-----|--------|-5~~~-|
A|---|-7-8-7-8-|-----------------7-|-5-6-5-6-|-----|---8--5-|------|
E|---|---------|-------------------|---------|-8~~-|-8------|------|


-------------------------
02:20
PRE CHORUS
***********
And all the jugglers who threw me here  And all the boxers they step out of the ring. Take their bathrobes... 
G|-----------------------------7-------|------------12-----10-------------------8-----7-|
D|----------5--------7---8-------------|------------------------8-----------------------|
A|--------------------------------6----|------------------------------------------------|
E|-------------------------------------|------------------------------------------------|


02:36
CHORUS
*******
I...   I felt like shit before
G|-----|-------|-----|--------|-----|----------|-----------|------s-|-----|-----|--------|-----|----------|
D|-5~~-|-------|-----|--------|-----|----------|-5---------|---5-5\-|-----|-----|--------|-----|----------|
A|-----|-5-8-8-|-----|-5--6-6-|-----|---8-8--5-|----0-5--5-|-5------|-5-8-|-----|-5--6-6-|-----|---8-8--5-|
E|-----|-------|-8~~-|--------|-8~~-|-8--------|-----------|--------|-----|-8~~-|--------|-8~~-|-8--------|


G|-------------------|
D|----5---7---8---10-|
A|-5-----------------|
E|-------------------|


I...   I felt like shit before
G|-----|-------|-----|--------|-----|----------|-----------|------s-|-----|-----|--------|-----|----------|
D|-5~~-|-------|-----|--------|-----|----------|-5---------|---5-5\-|-----|-----|--------|-----|----------|
A|-----|-5-8-8-|-----|-5--6-6-|-----|---8-8--5-|----0-5--5-|-5------|-5-8-|-----|-5--6-6-|-----|---8-8--5-|
E|-----|-------|-8~~-|--------|-8~~-|-8--------|-----------|--------|-----|-8~~-|--------|-8~~-|-8--------|


G|------------------|
D|---5--5-----------|
A|-5------0-5-5-5-5-|
E|------------------| 


03:39
Ahhhhhhhhhhhh
G|-----|-------|-----|--------|-----|----------|------------|---------|
D|-----|-------|-----|--------|-----|----------|-5----------|-------5-|
A|-----|-5-8-8-|-----|-5--6-6-|-----|---8-8--5-|----0-5-0-5-|-0-5-0---|
E|-3~~-|-------|-8~~-|--------|-8~~-|-8--------|------------|---------|


G|-------|-----|--------|-----|---------|-----------|---------|
D|-------|-----|--------|-----|---------|-5---------|-------5-|
A|-5-8-8-|-----|-5--6-6-|-----|---8-8-5-|---0-5-0-5-|-0-5-0---|
E|-------|-8~~-|--------|-8~~-|-8-------|-----------|---------|

04:10
G|-------|-----|--------|-----|---------|--------------|
D|-------|-----|--------|-----|---------|-5------------|
A|-5-8-8-|-----|-5--6-6-|-----|---8-8-5-|----0-5-5-5-5-|
E|-------|-8~~-|--------|-8~~-|-8-------|--------------|


G|-----|-------|-----|-------|-----|-------|-----|-------|
D|-----|-------|-----|-------|-----|-------|-----|-------|
A|-----|-------|-----|-------|-----|-------|-----|-------|
E|-3~~-|-0-3-3-|-3~~-|-0-3-3-|-3~~-|-0-3-3-|-3~~-|-0-3-3-|



ENJOY..........

            
            
Suggest correction
Creating personal tab
Creating personal tab
You can edit any tab online and save it as your Personal.

You can edit, replace or remove any tab part or add personal notes – all changes will be seen only by you.

Personal tabs can be accessed anytime from any device, even offline.
Learn more »
Give kudos to tab author, rate the tab!
1 2 3 4 5
comments
print report bad tab
guest
You may want to rate the tab now too:
select rating
Wanna post a correction for this tab? Suggest correction