Oops, an error
Loading. Please wait.

Lions Mouth Daniel chords

version 2
version 2

Whole song

148 views 3 this week
no commentswrite comment
1 2 3 4 5
3 more votes to show rating
add to favorites
×
Save as Personal and add changes to this tab that will be seen only by you. Learn more ›
×
You can save this tab as Personal to edit and correct it or add notes. All changes will be seen only by you. Learn more »
launch autoscroll
font size
0
reset
transpose
0
reset
simplify chords
display chords
guitar tuner
edit
Autoscroll
slow
fast
+/-
esc
set tempo
stop
Author
Difficulty
Strumming
There is no strumming pattern for this song yet. and get +5 IQ
Balthazar
“Lion's Mouth (Daniel)”
Rats (2012)


Tuning : Standard


(notes at the end of the tab, especially for the Ddim chord)


[Intro]

Cm, Ddim, Eb, Fm, Ab, Gm (x2)


[Verse 1]

Cm        Ddim    Eb        Fm             Ab     Gm
Walk this road my love like anything could ha...happen
Cm      Ddim     Eb   Fm              Ab     Gm
Blindly grab whatever does or doesn't ma...matter


[Chorus]

Ab             Cm       Bb
I did not want to write anything
Ab            Cm     Bb
I just wanted you to taste the ink
Ab
Just wanted you to be prepared


[Verse 2]

        Cm           Ddim    Eb       Fm               Ab   Gm
When at night when I side up with the moon, my dear compa...nion
        Cm         Ddim     Eb           Fm            Ab   Gm
By it's light I'll guide my steps at the bottom of the bo...ttle


[Chorus]

Ab             Cm       Bb
I did not want to write anything
Ab            Cm     Bb
I just wanted you to taste the ink
Ab             Cm       Bb
I did not want to write anything
Ab
I just wanted you to taste the ink


[Outro]

Cm, Ddim, Eb, Fm, Ab, Gm (x2)

Cm            Ddim    Eb           Fm   Ab     Gm
I'll shut the lion's mouth, if you let me            (x4)

e|----------------------------------|
B|----------------------------------|
G|----------------------------------|
D|----------------------------(x2)--|
A|----------------3~-----1~---------|
E|--4~-----1~-----------------------|


 
* The intro, the verses and the outro are the same

 
* You can play the song with a capo 3 if you prefer :
Cm    - Am
Ddim  - Bdim
Eb    - C
Fm    - Dm
Ab    - F
Gm    - Em

Ab    - F
Cm    - Am
Bb    - G
 

* Both Maarten and Jinte play these chords, but not the same way :

Maarten :
     Cm    Ddim  Eb    Fm    Ab    Gm
e|--(8)---------(11)--(1)---(4)---(3)--|
B|--(8)---------(11)--(1)---(4)---(3)--|
G|--(8)---------(11)--(1)---(5)---(3)--|
D|---10----12----13----3-----6-----5---|
A|---10----11----13----3-----6-----5---|
E|---8-----10----11----1-----4-----3---|

Jinte :
     Cm    Ddim  Eb    Fm    Ab        Gm
e|---3----------(6)----8-----4---(11)---3----10---|
B|---4-----6-----8-----9-----4----13----3----11---|
G|---5-----7-----8-----10----5----13----3----12---|
D|---5-----6-----8-----10----6-or-13----5-or-12---|
A|---3-----5-----6-----8-----6----11----5----10---|
E|---------------------------4----------3---------|
Suggest correction
Creating personal tab
Creating personal tab
You can edit any tab online and save it as your Personal.

You can edit, replace or remove any tab part or add personal notes – all changes will be seen only by you.

Personal tabs can be accessed anytime from any device, even offline.
Learn more »
Give kudos to tab author, rate the tab!
1 2 3 4 5
comments
print report bad tab
guest
You may want to rate the tab now too:
select rating
Wanna post a correction for this tab? Suggest correction