Oops, an error
Loading. Please wait.

Alive tab

by Bamboo
557 views 3 this week
4 commentsread comments
1 2 3 4 5
1 last vote to show rating
add to favorites
×
Save as Personal and add changes to this tab that will be seen only by you. Learn more ›
×
You can save this tab as Personal to edit and correct it or add notes. All changes will be seen only by you. Learn more »
launch autoscroll
font size
0
reset
how to read this tab
guitar tuner
edit
Autoscroll
slow
fast
+/-
esc
set tempo
stop
ALive By BAMBOO ... Im sure its Just Like The Original 1.. hehe!.. HI sA mGa RocKERs 
GeRRard (DonkiE), Oni (pisOT), Daniel(SherMAnaTor). hehe...Enjoy! Tnx UG!

Tabbed By: Ric Tobias
YM: Clinshen.klay@yahoo.com

Intro: A – E

e|--------------------5-----------|
B|-------2----------------3--0----|
G|-------2-----1------------------|
D|-------2-----2--—---------------| 2x
A|---0---------2---—--------------|
E|--------------------------------|

Verse 1: ( Verse A - E )

Son, she said have I got a little story for you.
What you thought was your daddy was nothing but a
While.. you were sitting home alone at age thirteen
Your real daddy was dying.

e|--------------------5-----------|
B|-------2----------------3--0----|
G|-------2-----1------------------|
D|-------2-----2--—---------------| 4x
A|---0---------2---—--------------|
E|--------------------------------|

Pre chorus:
                 F# - E
Sorry you didn't see him
                 F# - E
But I'm glad we talked."

e|-------------------------------|
B|-------------------------------|
G|--11----9----11---9------------|
D|--11----9----11--—9------------|
A|--9-----7----9-—--7------------|
E|-------------------------------|


Chorus :

Oh...oh, I'm still alive.
Hey, I...oh, I'm still alive.
Hey, I...oh, I'm still alive..

e|---------------------------|
B|---------------------------|
G|----9----12---7------------|
D|----9----12--—7---7--------| 3x
A|----7----10-—-5---7--------|
E|------------------5--------|


Hey. . .

e|---------------------------|
B|---------------------------|
G|---4~---8---9--------------|
D|---4~---8---9---—----------|
A|---2~---6—--7--------------|
E|---------------------------|


Verse 2:

Oh she walks slowly, across a young man's room
She said I'm ready. . .
Well I can't remember anything to this very day
Except the look.

e|--------------------5-----------|
B|-------2----------------3--0----|
G|-------2-----1------------------|
D|-------2-----2--—---------------| 4x
A|---0---------2---—--------------|
E|--------------------------------|

Pre chorus:
           F# - E
Oh you know where.
                      F# - E
Now I can't see I just stare

e|-------------------------------|
B|-------------------------------|
G|--11----9----11---9------------|
D|--11----9----11--—9------------|
A|--9-----7----9-—--7------------|
E|-------------------------------|

Chorus 2:

Oh...oh, I'm still alive.
Hey, I...oh, I'm still alive.
Hey, I...oh, I'm still alive..

e|---------------------------|
B|---------------------------|
G|----9----12---7------------|
D|----9----12--—7---7--------| 3x
A|----7----10-—-5---7--------|
E|------------------5--------|

Hey. . .

e|---------------------------|
B|---------------------------|
G|---4~---8---9--------------|
D|---4~---8---9---—----------|
A|---2~---6—--7--------------|
E|---------------------------|

Intrumental:

Hey. . .Yey. . .
e|---------------------------|
B|---------------------------|
G|---4~---8---11-------------|
D|---4~---8---11---—---------| 4x
A|---2~---6—--9--------------|
E|---------------------------|


Verse 3: ( Strumming A – E )

Is something wrong? she said.
Of course there is.
You're still alive she said.
Oh and do I deserve to be?
Is that the question?
And is so, if so, if so?
Who answers?

e|--------------------------------|
B|-------2------------------------|
G|-------2-----1------------------|
D|-------2-----2--—---------------|
A|-------------2---—--------------|
E|--------------------------------|

Last Chorus:

Oh...oh, I'm still alive.
Hey, I...oh, I'm still alive.
Hey, I...oh, I'm still alive..
Hey, hey.. oh..oh.. im still alive..4x

e|---------------------------|
B|---------------------------|
G|----9----12---7------------|
D|----9----12--—7---7--------| 7x
A|----7----10-—-5---7--------|
E|------------------5--------|
Suggest correction
Creating personal tab
Creating personal tab
You can edit any tab online and save it as your Personal.

You can edit, replace or remove any tab part or add personal notes – all changes will be seen only by you.

Personal tabs can be accessed anytime from any device, even offline.
Learn more »
Give kudos to tab author, rate the tab!
1 2 3 4 5
comments
print report bad tab
4 comments total. Showing first comments.
0 reply
doobidoo 6,271 Jun 02, 2007 02:58 AM

may guitar 2 un..

Intro: A – E

guitar1 guitar2
e|----------------\----5-----------|
B|-------2--------\--------3--0----|
G|-------2-----1--\----------------|
D|-------2-----2--\—---------------| 2x
A|---0---------2--\-—--------------|
E|----------------\----------------|

ganito un hehehe..
e|---------------------------------|
B|------5---------3----------------|
G|------4--------4-----------------|
D|------7-------5--—---------------| 2x
A|------7------5----—--------------|
E|---5--------3--------------------|


kulang tab na to..un lang

0 reply
doobidoo 6,271 Jun 02, 2007 03:01 AM

marami ung lead ng guitar 2 diba? saka puro my gadget., lalo na dun sa outro..
g1
e|---------------------------------|
B|------5---------3----------------|
G|------4--------4-----------------|
D|------7-------5--—---------------| 2x
A|------7------5----—--------------|
E|---5--------3--------------------|

guitar2
e|---------5-----------|
B|-------------3--0----|
G|---------------------|
D|-----—---------------|
A|-------------—-------|
E|---------------------|

0 reply
doobidoo 6,271 Jun 03, 2007 02:33 AM

subukan mo nga ito kung pede na

intro
Guitar1 g2 g1 g2
e|------5---3-----|-5-----------|-----5----3---|------------|
b|------5---3-----|-----3--0----|-----5----3---|------------|
g|------6---4-----|-------------|-----6----4---|------------|
D|------7---5-----|—------------|-----7----5---|-2h3p2--2/--|
A|------7---5-----|-—-----------|-----7----5---|-0------0/--|
E|--3/5-----3-----|-------------|--3/5-----3---|------------|


verse
Guitar1 g2 g1 g2
e|------5---3-----|-5-----------|-----5----3---|------------|
b|------5---3-----|-----3--0----|-----5----3---|-0--3--0----|
g|------6---4-----|-------------|-----6----4---|------------|
D|------7---5-----|—------------|-----7----5---|------------|2x
A|------7---5-----|-—-----------|-----7----5---|------------|
E|--3/5-----3-----|-------------|--3/5-----3---|------------|


refrain-

e|----------------|
b|----------------|
g|----------------|
D|-15151515--14~--|2x
A|-15151515--14~--|
E|-13131313--12~--|


chorus-

e|----------------------------|
b|----------------------------|
g|-------------7777-----------|
D|-2222--5555--7777--7777-----|2x
A|-2222--5555--5555--7777-----|
E|-0000--3333--------5555-----|


post chorus-
e|----------------------------|
b|----------------------------|
g|--------8888----/10\--------|
D|--9999--8888----/10\--------|
A|--9999--6666----/8-\--------|
E|--7777----------------------|

interlude
Guitar1

e|-----5--3---|-5------|-------------|-----5----3---|---------|------------|
b|-----5--3---|---3--0-|-------------|-----5----3---|---------|------------|
g|-----6--4---|--------|-/6b-7h9-6---|-----6----4---|---------|------------|
D|-----7--5---|—-------|----------7~-|-----7----5---|-5-4-/7b-|-2h3p2--2/--|
A|-----7--5---|-—------|-------------|-----7----5---|---------|-0------0/--|
E|-3/5----3---|--------|-------------|--3/5-----3---|---------|------------|


verse2

e|------5---3-----|-----5---|-----5----3---|-----5-5-5-5-5-5---5-5--|
b|------5---3-----|-----5---|-----5----3---|-----5-5-5-5-5-5---5-5--|
g|------6---4-----|-----6---|-----6----4---|-----6-6-6-6-6-6---6-6--|
D|------7---5-----|—--------|-----7----5---|------------------------|
A|------7---5-----|-—-------|-----7----5---|------------------------|
E|--3/5-----3-----|-3/5-----|--3/5-----3---|-3/5--------------------|

Guitar1 g2 g1 g2
e|------5---3-----|---------------|-----5----3---|-----5--5--|
b|------5---3-----|---------------|-----5----3---|-----5--5--|
g|------6---4-----|---------------|-----6----4---|-----6--6--|
D|------7---5-----|—--------------|-----7----5---|-----------|
A|------7---5-----|-44545—54--74--|-----7----5---|-----------|
E|--3/5-----3-----|---------------|--3/5-----3---|-3/5-------|


adlib-

e|------------------------|-------------------------------|
b|------------------------|--9b-----9---------------------|
g|--------8888--10--------|------11---11--12-11-9b--------|
D|--9999--8888--10--------|-------------------------------|
A|--9999--6666--8---------|-------------------------------|
E|--7777------------------|-------------------------------|


e|------------------------|-------------------------------|
b|------------------------|--------11h14p11--14-11--------|
g|--------8888--10--------|------------------------13--11-|
D|--9999--8888--10--------|--9h11p9-----------------------|
A|--9999--6666--8---------|-------------------------------|
E|--7777------------------|-------------------------------|


e|------------------------|-------------------------|
b|------------------------|---------11----11-14-11b-|
g|--------8888--10--------|-----9-11---11-----------|
D|--9999--8888--10--------|-9h11--------------------|
A|--9999--6666--8---------|-------------------------|
E|--7777------------------|-------------------------|


e|------------------------|--12b--9-11-------------------|
b|------------------------|------------11-9-11-9---------|
g|--------8888--10--------|----------------------11/8b---|
D|--9999--8888--10--------|------------------------------|
A|--9999--6666--8---------|------------------------------|
E|--7777------------------|------------------------------|

guest
You may want to rate the tab now too:
select rating
Wanna post a correction for this tab? Suggest correction