Oops, an error
Loading. Please wait.

Argos tab

version 1
version 1

Whole song

by Bamboo
1,811 views 1 this week
4 commentsread comments
1 2 3 4 5
x 9
add to favorites
×
Save as Personal and add changes to this tab that will be seen only by you. Learn more ›
×
You can save this tab as Personal to edit and correct it or add notes. All changes will be seen only by you. Learn more »
launch autoscroll
font size
0
reset
how to read this tab
guitar tuner
edit
Autoscroll
slow
fast
+/-
esc
set tempo
stop
The tab has been removed by the author,please check the other version.


A lot of tab users are slow learners..
e|-------------------------------------------------3---|
B|-------------------------------------------------3---|
G|-------------------------------------------------0---|
D|-7~--5~--9~--7~--5~--5555-5555--9999--7777--5~---0---|
A|-7~--3~--7~--5~--5~--5555-3333--7777--5555--5~---2---|
E|-5~--------------3~--3333-------------------3~---3---|
                                                   *

Argos Lyrics:

I cried for days
Wasn’t sure how i got to be here
Brought my knees
Wasn’t the fallacy that’s inside of me
Peace i give you, hey
. 
And make him pay
Left throbin’ on the outside, time
You’ll play your game
That you wasted for no reason
Afar from reason
Show me, show me, show me

You say i don’t belong
You say we don’t belong

Well duty bounds me

On the cover of a magazine
The girl of your dreams
My hero’s weapon is what you will seek
Don’t be all you can be
You can

Save me now, but not today

            
            
Suggest correction
Creating personal tab
Creating personal tab
You can edit any tab online and save it as your Personal.

You can edit, replace or remove any tab part or add personal notes – all changes will be seen only by you.

Personal tabs can be accessed anytime from any device, even offline.
Learn more »
comments
print report bad tab
4 comments total. Showing first comments.
0 reply
be_silent 81 May 07, 2007 05:21 AM

Hanep naman\m/

Paanu mu nakuha ung solo?

4 stars pero gawin ko ng 5!

Idol kita dito ehhh(^0^)

0 reply
kram_1234 10 Jun 08, 2007 06:08 AM

Sowee p0h ah... update ko n lng lead sa adlib.... cenxa n tlga.. hope u like it. pkirate mo to pls......
[01/30/2007 - 04:39 am] by guitar_elvin : |
Eto p0h ung Lead part sa Adlib.... dto ko n lng p0h ilgay kc di ko p0h alm kung pnu i-edit ung tabs eh.... ung chords p0h pla sa REFRAIN ay: F#m-B-F#m-B-F#m-B-A-B....

Guitar 1:
e|------------------------------------------|
B|------------------------------------------|
G|--99999999--44444444--66666666------------|
D|--99999999--44444444--66666666--77777777--| 2x
A|--77777777--22222222--44444444--77777777--|
E|--------------------------------55555555--|

Guitar 2:
e|--------------------------------------------9-9/12~~--|
B|---------------121212-111111-101010-999-888-----------|
G|--------7-9/12~---------------------------------------|
D|----7h9-----------------------------------------------|
A|-7h9--------------------------------------------------|
E|------------------------------------------------------|

e|--------------------------------------------------------
B|--------------------------------------------------------
G|-13--14--15--16--17--17----17-16--17-16--17-16--17-16--
D|---12--12--13--14--15-----16-----16-----16-----16-------
A|--------------------------------------------------------
E|--------------------------------------------------------

Continuation........
--17-16--17-16--17-16--17-16---------------------------------
-16-----16-----16-----16-----161616-151515-14-14/15-14-0-14--
-------------------------------------------------------------
-------------------------------------------------------------
-------------------------------------------------------------
-------------------------------------------------------------

Continuation........
-----------------------------------------|
-121212-111111-101010-999-888-77-66-55~--|
-----------------------------------------|
-----------------------------------------|
-----------------------------------------|
-----------------------------------------|
[02/05/2007 - 05:30 am] by penelope_024 : |
elvin. ako unang mag-cocomment haha.
pwede bang sa friendster na lang?

so anyway. ayon sa kuya ko: a la proffesional daw gawa mo.
eeh. laki ulo.

so. ayun.. di ko pa yan naiintindihan. pero pagnaturuan mo na ako mag-gitara malalaman ko na yan :D

pero. ikaw nag-introduce sa akin ng song na yan.

thanks. such a wonderful song.

next mo naman ang A promise. ;)
[02/13/2007 - 03:12 am] by itchybulate : |
oi elvin. elvin vous êtes si injuste
[02/13/2007 - 03:13 am] by itchybulate : |
elvin vous êtes si injuste... ikaw ha. pasalamat ka malakas ka sa akin. :c..

anyways.. happy valentines day na lang.. di ka man lang marunong mag thank you. :c
[02/13/2007 - 05:40 am] by elvin_guitar : |
thanks p0 sa pgrrate!!!!!
[02/15/2007 - 06:19 am] by janires_007 : |
ANG ganda ,, ponyemas naman .......ito ang da best sa lahat ,,,,,,,,,,,, ganda pa ng song,,,,, cguro ang cute, matalino, mabait, at magaling ang gumawa ni2 !!!!!!!!! guys one of a kind @@@@@@@@@@ dont let this moment pass away , IRATE NIO I2 AT GWABEHH ,, GALING NI ELVIN KUNG SINO MAN UNG ,,, A BASTA GALING NIA,,, SHET TALAGA !!!!!!!,,,,da besttttttttttttttttt !!!!
[02/15/2007 - 06:23 am] by elvin_guitar : |
thnx... adik ka.... hehhehe.........
[02/24/2007 - 12:33 am] by caycie220727 : |
nice gling.asa p.elvin p.pti s pgtulog ktabi gitara.cge.rate nio.
[02/27/2007 - 06:29 am] by repax : |
mga tanga!!! mali ang adlib nya.. mga bingi b kau... meron syang pull dapat... eh wala dyan...
[02/27/2007 - 06:31 am] by repax : |
e2 p ang isa.. ung intro.. nag start sya s E.. eh bkit s F# galing?
[03/01/2007 - 06:08 am] by elvin_guitar : |
kanya-kanyang tabs yan
[03/01/2007 - 08:31 am] by wakoko323 : |
psSst....bro mali tlga ung intro mo... ung adlib mo mejo may palya pa...
[03/02/2007 - 07:31 am] by TOKMOL13 : |
Guitar 2:
e|----7-----------|----7-----------|----7----------------------------|
B|-5-5-7-5-7h9-7-|-5-5-7-5-7h9-7---|-5-5-7-5-7h9-7-9/10-9-9/10-9-7\5-|
G|----------------|----------------|---------------------------------|
D|----------------|----------------|---------------------------------|
A|----------------|----------------|---------------------------------|
E|----------------|----------------|---------------------------------|

e|----7-----------|----7-----------|----7----------------------------|
B|-5-5-7-5-7h9-7--|-5-5-7-5-7h9-7--|-5-5-7-5-7h9-7-9/10-9-9/12~~-----|
G|----------------|----------------|---------------------------------|
D|----------------|----------------|---------------------------------|
A|----------------|----------------|---------------------------------|
E|----------------|----------------|--------------------------------------|
[03/02/2007 - 07:32 am] by TOKMOL13 : |
yan ata ung intro nia tol/... maxadong mataas ung sau..
[03/03/2007 - 01:13 am] by elvin_guitar : |
dude tokmol13.. thnaks.. pcorrect ng adlib ko
[03/05/2007 - 12:47 am] by jrmarcellana : |
i2 ung gamit na chord sa live na video namin sa rhytym ng callalily sa bar... open string sa lower e at B strin

0 reply
gakkung85 20 Jun 18, 2007 08:57 PM

nice!!

guest
You may want to rate the tab now too:
select rating
Wanna post a correction for this tab? Suggest correction