Oops, an error
Loading. Please wait.

Hallelujah Bass Tab

version 1
version 1

Whole song

Interactive

56,357 views 63 this week
no commentswrite comment
1 2 3 4 5
x 8
add to favorites
launch autoscroll
font size
0
reset
guitar tuner
Autoscroll
slow
fast
+/-
esc
set tempo
stop
Help us to improve Ultimate-Guitar.com Take our survey!
×
Artist: Bamboo
Song: Hallelujah

[Intro]
G|-------------|-------------------|-----------|------------|
D|-7--7--7-7-0-|-3--3--0-3-3-5-5-2-|-----------|------------|
A|-------------|-------------------|-3--3--3/5-|5--2--2---2-|
E|-------------|-------------------|-----------|------------|

G|-------------|----------------|-------------|---------------|
D|-------------|----------------|-------------|---------------|
A|-0--0--0-0-0-|----------------|-3--3--3-3-3-|-5-5--2--2-2-2-|
E|-------------|-1--1--1-1--1-1-|-------------|---------------|

G|-------------|----------------|-------------|--------------|
D|-------------|----------------|-------------|--------------|
A|-0--0--0-0-0-|----------------|-3--3--3-3-3-|-5-5--2—2---2-|
E|-------------|-1--1--1-1--1-1-|-------------|--------------|

[Verse] 
(Pattern 1)
G|---|---|---|---|---|---|---|---|
D|---|---|---|---|---|---|---|---|
A|-0-|---|-3-|---|-0-|---|-3-|---|
E|---|-1-|---|-3-|---|-1-|---|-3-|

 (Pattern 2)
G|------|-----------|------|-----------|
D|------|-----------|------|-----------|
A|------|-----------|-3--3-|-----------|
E|-5--5-|-1—0h1---1-|------|-3-0h3---3-|

G|------|-----------|------|-----------|
D|------|-----------|------|-----------|
A|------|-----------|-3--3-|-----------|
E|-5--5-|-1—0h1---1-|------|-3-0h3---3-|

[Fill]
G|-------------|---------------------|-------------|---------------|
D|-7--7--7-7-0-|-3--3--0-3-3-5-5-2-2-|-------------|---------------|
A|-------------|---------------------|-3--3--3—3/5-|-5-5--2--2---2-|
E|-------------|---------------------|-------------|---------------|

G|-------------|---------------------|----------|---|
D|-----------0-|-3--3--0-3-3-5-5-2-2-|----------|---|
A|-0--0--0-0---|---------------------|-3--3—3/5-|-2-|
E|-------------|---------------------|----------|---|

G|------|-----------|------|-----------|
D|------|-----------|------|-----------|
A|------|-----------|-3--3-|-----------|
E|-5--5-|-1—0h1---1-|------|-3-0h3---3-|

G|------|-----------|------|-----------|
D|------|-----------|------|-----------|
A|------|-----------|-3--3-|-----------|
E|-5--5-|-1—0h1---1-|------|-3-0h3---3-|

G|------|-----------|------|-----------|
D|------|-----------|------|-----------|
A|------|-----------|-3--3-|-----------|
E|-5--5-|-1—0h1---1-|------|-3-0h3---3-|

G|------|-----------|------|-----------|
D|------|-----------|------|-----------|
A|------|-----------|-3--3-|-----------|
E|-5--5-|-1—0h1---1-|------|-3-0h3---3-|

 [Refrain]
G|-----------|---------------------|---------------------------------|
D|-----------|-----------5--5------|---------------------------------|
A|-----------|---------------------|-5-5-5-5-5-5-5-5-5-5-5-5-5-5-5-5-|
E|-1---5/8---|-8---3--3------------|---------------------------------|

G|---------------------------------|
D|---------------------------------|
A|-8-8-8-8-8-8-8-8-8-8-8-8-8-8-8-8-|
E|---------------------------------|

[Chorus]
G|---------------------------------|---------------------------------|
D|---------------------------------|---------------------------------|
A|-0-0-0-0-0-0-0-0-0-0-0-0-0-0-0-0-|-8-8-8-8-8-8-8-8-8-8-8-8-8-8-8—8-|
E|---------------------------------|---------------------------------|

G|---------------------|-------------------------|
D|---------------------|-------------------------|
A|---------------------|-10-10-10-10-10-10-10-10-|
E|-8-8-8-8-8-8-8-8-8-8-|-------------------------|

G|---------------------------------|
D|---------------------------------|
A|-8-8-8-8-8-8-8-8-8-8-8-8-8-8-8-8-|
E|---------------------------------|

G|---------------------------------|---------------------------------|
D|---------------------------------|---------------------------------|
A|-0-0-0-0-0-0-0-0-0-0-0-0-0-0-0-0-|-8-8-8-8-8-8-8-8-8-8-8-8-8-8-8—8-|
E|---------------------------------|---------------------------------|

G|---------------------|-------------------------|
D|---------------------|-------------------------|
A|---------------------|-10-10-10-10-10-10-10-10-|
E|-8-8-8-8-8-8-8-8-8-8-|-------------------------|

G|---------------------------------|------------------------|
D|---------------------------------|------------------------|
A|-8-8-8-8-8-8-8-8-8-8-8-8-8-8-8-8-|-7---7--7-7-7-7-7-7-7-7-|
E|---------------------------------|------------------------|

[Interlude] 
(Do Pattern 2)
[Verse 2]
(Do Pattern 2) 
[Verse 3]
(Do Pattern 1)

 [Verse 4]
G|----------|------------|---------|---------|
D|----------|----------3-|---------|---------|
A|-0---0--0-|------------|-3-3-3-3-|---------|
E|----------|-0-1--0-1---|---------|-3-3-3-3-|

G|----------|---------|---------|---------|
D|----------|---------|---------|---------|
A|-0---0--0-|---------|-3-3-3-3-|---------|
E|----------|-1-1-1-1-|---------|-3-3-3-3-|

 [Refrain]
G|-----------|---------------|---------------------------------|
D|----3------|-----------5-5-|---------------------------------|
A|-----------|---------------|-5-5-5-5-5-5-5-5-5-5-5-5-5-5-5-5-|
E|-1-----5/8-|-8---3--3------|---------------------------------|

G|---------------------------------|
D|---------------------------------|
A|-8-8-8-8-8-8-8-8-8-8-8-8-8-8-8-8-|
E|---------------------------------|

[Chorus]
G|---------------------------------|---------------------------------|
D|---------------------------------|---------------------------------|
A|-0-0-0-0-0-0-0-0-0-0-0-0-0-0-0-0-|-8-8-8-8-8-8-8-8-8-8-8-8-8-8-8—8-|
E|---------------------------------|---------------------------------|

G|---------------------|-------------------------|
D|---------------------|-------------------------|
A|---------------------|-10-10-10-10-10-10-10-10-|
E|-8-8-8-8-8-8-8-8-8-8-|-------------------------|

G|---------------------------------|
D|---------------------------------|
A|-8-8-8-8-8-8-8-8-8-8-8-8-8-8-8-8-|
E|---------------------------------|

G|---------------------------------|---------------------------------|
D|---------------------------------|---------------------------------|
A|-0-0-0-0-0-0-0-0-0-0-0-0-0-0-0-0-|-8-8-8-8-8-8-8-8-8-8-8-8-8-8-8—8-|
E|---------------------------------|---------------------------------|

G|---------------------|-------------------------|
D|---------------------|-------------------------|
A|---------------------|-10-10-10-10-10-10-10-10-|
E|-8-8-8-8-8-8-8-8-8-8-|-------------------------|

G|---------------------------------|------------------------|
D|---------------------------------|------------------------|
A|-8-8-8-8-8-8-8-8-8-8-8-8-8-8-8-8-|-7---7--7-7-7-7-7-7-7-7-|
E|---------------------------------|------------------------|


************************************

| /  Slide up
| h  Hammer-on

************************************
Suggest correction
comments
print report bad tab
guest
You may want to rate the tab now too:
select rating
Wanna post a correction for this tab? Suggest correction