Oops, an error
Loading. Please wait.

Hallelujah tab

version 1
version 1

Interactive

by Bamboo
57,190 views 78 this week
4 commentsread comments
1 2 3 4 5
x 8
add to favorites
×
Save as Personal and add changes to this tab that will be seen only by you. Learn more ›
×
You can save this tab as Personal to edit and correct it or add notes. All changes will be seen only by you. Learn more »
launch autoscroll
font size
0
reset
how to read this tab
guitar tuner
backing track
0:00
0:00
edit
Autoscroll
slow
fast
+/-
esc
set tempo
stop
Author
[Intro]
   Dm
e|--3---|
B|--1---|
G|--2---|(4x)
D|------|
A|------|
E|------|

(this part is P.M.)
e|-------------------------------------------------|
B|-------------------------------------------------|
G|-------------------------------------------------|(2x)
D|-------------------------------------------------|                         
A|------888-8/10--77-----55------------------------|
E|--555--------------888-----77--3--5--------------|

[Verse 1] 
(light struming with wah!! effect)
 anong balita sa radio at t.v......
   Am   F    C   G
e|-5----1----3---3-----|
B|-5----1----5---3-----|
G|-5----2----5---4-----|
D|-7----3----5---5-----| (2x)
A|-7----3----3---5-----|
E|-5----1--------3-----|

 tapos
   Dm
e|--3---|
B|--1---|
G|--2---|(2x)
D|------|
A|------|
E|------|

[Verse 2]
bato bato sa langit tamaan wag magalit....
Light struming lng "clean effect"
e|-------------------------------------------------|
B|-------------------------------------------------|
G|-------------------------------------------------|(2x)
D|-------------------------------------------------|                         
A|------888-8/10--77-----55------------------------|
E|--555--------------888-----77--3--5--------------|

[Pre-Chorus]
may kasama ka kapatid kaibigan 
   F   C   G      
e|-1---3---3-----------|
B|-1---5---3-----------|
G|-2---5---4-----------|
D|-3---5---5-----------|
A|-3---3---5-----------|
E|-1-------3-----------|

hanggat ako'y humihinga may pag asa pa!!...
   D   C         
e|---------------------|
B|---------------------|
G|-7---10--------------|
D|-7---10--------------|
A|-5---8---------------|
E|---------------------|

[Chorus]
oohhhh!!!....ooohhhh!!!!....hallelu...hallelujah...
sinong sawa... sinong galet... sumigaw ngayung gabe

 Am    F    C   G    F    
e|-5----1----3---3---1-----|
B|-5----1----5---3---1-----|
G|-5----2----5---4---2-----|(2x)
D|-7----3----5---5---3-----|
A|-7----3----3---5---3-----|
E|-5----1--------3---1-----|

(tapos)
   Em   G
e|--0-------|
B|--0-------|
G|--0-------|
D|--2---5---|
A|--2---5---|
E|--0---3---|

(before the rap)
[Chords]
 Am    F    C   G
e|-5----1----3---3-----|
B|-5----1----5---3-----|
G|-5----2----5---4-----|
D|-7----3----5---5-----|
A|-7----3----3---5-----|
E|-5----1--------3-----|

[rap]
( no chords )
"save me from the fire" eto gawin nyo
 Dm
e|--3---|
B|--1---|
G|--2---|(2x)
D|------|
A|------|
E|------|

[Verse 3]
ngayong gabi ako ang sundalo mo...
at habang 2log akoy gising nkabantay sayo hooohhhhooooo!!!
 Am    F    C   G
e|-5----1----3---3-----|
B|-5----1----5---3-----|
G|-5----2----5---4-----| (3x)
D|-7----3----5---5-----|
A|-7----3----3---5-----|
E|-5----1--------3-----|

[Pre-Chorus]
may kasama ka kapatid kaibigan 
   F   C   G      
e|-1---3---3-----------|
B|-1---5---3-----------|
G|-2---5---4-----------|
D|-3---5---5-----------|
A|-3---3---5-----------|
E|-1-------3-----------|

hanggat ako'y humihinga may pag asa pa!!...
   D   C         
e|---------------------|
B|---------------------|
G|-7---10--------------|
D|-7---10--------------|
A|-5---8---------------|
E|---------------------|

[Chorus]
oohhhh!!!....ooohhhh!!!!....hallelu...hallelujah...
sinong sawa... sinong galet... sumigaw ngayung gabe
hallelu...hallelujah...

 Am    F    C   G    F    
e|-5----1----3---3---1-----|
B|-5----1----5---3---1-----|
G|-5----2----5---4---2-----|(2x)
D|-7----3----5---5---3-----|
A|-7----3----3---5---3-----|
E|-5----1--------3---1-----|

[guitar solo]
(wah effect)
e|-------2----2----------------2----2----------------|
B|----1----------1----------1----------1-------------|
G|-3----------------3----3----------------3----------|
D|---------------------------------------------------|
A|---------------------------------------------------|
E|---------------------------------------------------|

e|----------------------------------------------------------|
B|--8-8----5-5----3-3----1-1--------------------------------|
G|----------------------------------------------------------|
D|-----------------------------5h6---5h6---5h6---5h6---5h6--|
A|----------------------------------------------------------|
E|----------------------------------------------------------|

e|----------------------------------------------------------|
B|-5--8--10--12--10--12--13--15--14--15--17-----------------|
G|----------------------------------------------------------|
D|----------------------------------------------------------|
A|----------------------------------------------------------|
E|----------------------------------------------------------|

e|--17-17--------17-17--------17----|
B|---------17-17-------17-17----17--|
G|----------------------------------|
D|----------------------------------|
A|----------------------------------|
E|----------------------------------|

 (eto yung mabilis na part pate wah! wah! mabilis din)
e|--15h17--12h17--12h17--12h17--12h17--12h17-|
B|-------------------------------------------|
G|-------------------------------------------|
D|-------------------------------------------|
A|-------------------------------------------|
E|-------------------------------------------|

sinong sawa... sinong galet... sumigaw ngayung gabe
hallelu...hallelujah...

 Am    F    C   G    F    
e|-5----1----3---3---1-----|
B|-5----1----5---3---1-----|
G|-5----2----5---4---2-----|(2x)
D|-7----3----5---5---3-----|
A|-7----3----3---5---3-----|
E|-5----1--------3---1-----|

[Outro]
oohhhh!!!....ooohhhh!!!!....hallelu...hallelujah...

 Am    F    C   G    F    
e|-5----1----3---3---1-----|
B|-5----1----5---3---1-----|
G|-5----2----5---4---2-----|(2x)
D|-7----3----5---5---3-----|
A|-7----3----3---5---3-----|
E|-5----1--------3---1-----|


************************************

| /  Slide up
| h  Hammer-on

************************************
Suggest correction
Creating personal tab
Creating personal tab
You can edit any tab online and save it as your Personal.

You can edit, replace or remove any tab part or add personal notes – all changes will be seen only by you.

Personal tabs can be accessed anytime from any device, even offline.
Learn more »
comments
print report bad tab
4 comments total. Showing first comments.
0 reply
karate 76 Jun 28, 2005 08:00 PM

pre kung pwede umalis ka na hindi 100 percent mo yan gnawa!!! pre san mo nakuha yan sa version 6 yung most parts nito halatang kinopy paste lng nitong taong to yung most chords sa ver 6!!

0 reply
karate 76 Jun 28, 2005 08:00 PM

aken kse yung version 6 pre

0 reply
karate 76 Jun 28, 2005 08:00 PM

yung rap:(no chords) aken yun eh!! akala mo sino ka ah! mangagaya ka lng ah!!! illegal yan pre at least sabihin mo na ibang parts saken galeng!!!

guest
You may want to rate the tab now too:
select rating
Wanna post a correction for this tab? Suggest correction