Oops, an error
Loading. Please wait.

Hallelujah tab

version 6
version 6

Interactive

by Bamboo
20,877 views 66 this week
3 commentsread comments
1 2 3 4 5
1 last vote to show rating
add to favorites
×
Save as Personal and add changes to this tab that will be seen only by you. Learn more ›
×
You can save this tab as Personal to edit and correct it or add notes. All changes will be seen only by you. Learn more »
launch autoscroll
font size
0
reset
how to read this tab
guitar tuner
backing track
0:00
0:00
edit
Autoscroll
slow
fast
+/-
esc
set tempo
stop
Author
Song Title: Hallelujah
Song Artist: Bamboo
Tab Owner: Dabu Ubaña
Email Address: dabo03bass@gmail.com
Facebook Account Link : https://www.facebook.com/dabu.ubana
Band FB Account Link :https://www.facebook.com/ExtraRiceBandPH?fref=ts
Location: Daet, Camarines Norte Bicol Region
----------------------------------------------------------------------------

[Intro] whether of this 2.. choose where you feel comfortable ^^
e|------------------------|          e|------3-----------------|
B|------8-----------------|          B|----1-------------------|
G|----5-------------------|    or    G|--2---------------------|
D|--7---------------------|          D|------------------------|  
A|------------------------|          A|------------------------|
E|------------------------|x4        E|------------------------|x4

Then: Do it Fast XD
e|---------------------------------|
B|---------------------------------|
G|---------------------------------|  x2
D|-------333-355-22----------------|
A|-----3-----------33-55-2h3p2-----|
E|-555------------------------3s5--|

[Verse 1] u can use WAH effects if you can, or just palm mute it
e|-------------------|                |-------------------|
B|-------------------|                |-------------------|
G|-------------------| or just simply |-----10------------|
D|-7---15---10---5---|                |-7---10---10---5---|
A|-7---15---10---5---|                |-7---8----10---5---|
E|-5---13---8----3---|x4              |-5--------8----3---|x4

[Interlude] x2
e|------------------------|          e|------3-----------------|
B|------8-----------------|          B|----1-------------------|
G|----5-------------------|    or    G|--2---------------------|
D|--7---------------------|          D|------------------------|  
A|------------------------|          A|------------------------|
E|------------------------|x4        E|------------------------|x4

[Refrain]
e|---------------------|    |---------------------|
B|---------------------|    |---------------------|
G|-----5---------------| or |-----5-------10---12-|
D|-3---5---5---15---17-|    |-3---5---5---10---12-|
A|-3---3---5---13---17-|    |-3---3---5---8----10-|
E|-1-------3---13---15-|    |-1-------3-----------|

[Chorus]
e|--------------------|    Then  e|-------|
B|--------------------|          B|-------|
G|---------5----------|          G|-------|
D|-7---3---5---5---15-|          D|-7---3-|
A|-7---3---3---5---15-|          A|-7---3-|
E|-5---1-------3---13-|x2        E|-5---1-|

[Rap Part] Sorry ala eh.. d kya nung drummer ko ung drummings dun eh..
           mahirap daw.. pero mahirap naman tlaga..  kya d na ako nag effort
           na tipain sya..
       
           Pero nakakahiya naman senyo.. Hehehe!!

e2 ung bago mag rap..:
e|------------------------|
B|---------------5-6-5----| kung mali.. sory man!! haha!!
G|---------5-7-5-------7--| on the spot ko lng kasi yan tinipa..
D|-5h7-5-7----------------| okay?.. hehe!!
A|------------------------|
E|------------------------|

[Verse 3] u can use WAH effects if you can, or just palm mute it
e|-------------------|                |-------------------|
B|-------------------|                |-------------------|
G|-------------------| or just simply |-----10------------|
D|-7---15---10---5---|                |-7---10---10---5---|
A|-7---15---10---5---|                |-7---8----10---5---|
E|-5---13---8----3---|x4              |-5--------8----3---|x4

[Refrain]
e|---------------------|    |---------------------|
B|---------------------|    |---------------------|
G|-----5---------------| or |-----5-------10---12-|
D|-3---5---5---15---17-|    |-3---5---5---10---12-|
A|-3---3---5---13---17-|    |-3---3---5---8----10-|
E|-1-------3---13---15-|    |-1-------3-----------|

[Chorus]
e|--------------------|    Then  e|-------|
B|--------------------|          B|-------|
G|---------5----------|          G|-------|
D|-7---3---5---5---15-|          D|-7---3-|
A|-7---3---3---5---15-|          A|-7---3-|
E|-5---1-------3---13-|x2        E|-5---1-|

[Solo] WAH Effects
e|------------------------------------------------------------------|
B|-------8--5------------8--5------88-55----------------------------|
G|-----5-----7-5-------5------7----------77-55----------------------|
D|-5h7-------------5h7-------------------------7-5-7---5h7-5h7-5h7--|
A|------------------------------------------------------------------|
E|------------------------------------------------------------------|

e|----------------------------------------------------------171717------171717-------17---|
B|-555-888-101010-121212-10-12-131313-151515-13-15-17-15-17-------171717------171717---17-|
G|----------------------------------------------------------------------------------------|
D|----------------------------------------------------------------------------------------|
A|----------------------------------------------------------------------------------------|
E|----------------------------------------------------------------------------------------|

e2 ung fast part.. u can try this:
e|-15s17-15s17-15s7-15s17-|
B|------------------------|
G|------------------------| 
D|------------------------|
A|------------------------|
E|------------------------|

or this tapping version: kelangan sobrang bilis ne2.. [R] means tap by right finger
e|-15h17-17[R]--15h17-17[R]--15h7-17[R]--15h17-17[R]--15h17-17[R]--15h17-17[R]--15h7-17[R]--15s17|
B|-----------------------------------------------------------------------------------------------|
G|-----------------------------------------------------------------------------------------------|
D|-----------------------------------------------------------------------------------------------|
A|-----------------------------------------------------------------------------------------------|
E|-----------------------------------------------------------------------------------------------|

Then Chorus Chords: Timing dapat dun sa delay.. The Finish it with
The Lower F
e|-------|
B|-------|
G|-------| then let it ring..
D|---3---|
A|---3---|
E|---1---|

************************************

| x  Dead note
| h  Hammer-on
| p  Pull-off
| s  Slide

************************************

            
            
Suggest correction
Creating personal tab
Creating personal tab
You can edit any tab online and save it as your Personal.

You can edit, replace or remove any tab part or add personal notes – all changes will be seen only by you.

Personal tabs can be accessed anytime from any device, even offline.
Learn more »
Give kudos to tab author, rate the tab!
1 2 3 4 5
comments
print report bad tab
3 comments total.
0 reply
Quizero 91 Sep 07, 2010 03:41 AM

wag nyo pong pansinin ung "15s17-15s17-15s7-15s17" dun sa may solo.. extra lng un.. hahaha.. hndi ko na i erase.. hahaha

0 reply
Quizero 91 May 02, 2011 09:04 AM

*edited.. ung sami

0 reply
jzabate 13 Feb 17, 2015 03:10 AM

didn't like this contribution

guest
You may want to rate the tab now too:
select rating
Wanna post a correction for this tab? Suggest correction