Oops, an error
Loading. Please wait.

I-You tab

version 2
version 2

Whole song

by Bamboo
1,080 views 3 this week
2 commentsread comments
1 2 3 4 5
2 more votes to show rating
add to favorites
×
Save as Personal and add changes to this tab that will be seen only by you. Learn more ›
×
You can save this tab as Personal to edit and correct it or add notes. All changes will be seen only by you. Learn more »
launch autoscroll
font size
0
reset
how to read this tab
guitar tuner
edit
Autoscroll
slow
fast
+/-
esc
set tempo
stop
Author
-----------------------------------------------------------------------------
                             I-you - Bamboo
-----------------------------------------------------------------------------
Email: dasec_pox@yahoo.com

Tuning: Standard

Intro. Pluck lang mga 8 times tas slide sa next note
e|-------------------------------------------|   
B|-------------------------------------------|   
G|-------------------------------------------|   
D|-------------------------------------------|                     
A|-------------------------------------------| 
E|---3---10---5---8--------------------------|        

Pwede ring ganito yung intro
e|-----------------------------------------------------------|
B|-----------------------------------------------------------|
G|-----------------------------------------------------------|
D|-----------------------------------------------------------|
A|-5-----5-----5----12-------12-------12-----7-----7-----7---|
E|-3-3-3-3-3-3-3-3/-10-10-10-10-10-10-10-10\-5-5-5-5-5-5-5-5-|

e|-----------------|
B|-----------------|
G|-----------------|
D|-----------------|
A|-10----10----10--|
E|-8-8-8-8-8-8-8-8-|

Gtr. II
e|-------------------------------------------------------------------------|
B|-------------------------------------------------------------------------|
G|-------------------------------------------------------------------------|
D|-------------------------------------------------------------------------|
A|-2-----2-----2---/8-------8-------8----\3-----3-----3---/7-----7-----7---|
E|---3-3---3-3---3----10-10---10-10---10----5-5---5-5---5----8-8---8-8---8-|

Pluck lang sa 6th(e) string 

Verse 1:
3
Pain
        /10
Leads to freedom
    \5                        /8
It's everyone's opinion not my own

3
Fame
           /10
Crystal kingdom
   \5                         /8
It's everybody's mission not my own


Refrain 1:
       G
Not too young
Not that old
      Dm
Neither bitter
Neither cold
       Am
Just an optimist
              C
Who's turned a little cynical
     G
Under gloom
              Dm
Don't be afraid
           Am    
Love is stronger than us all          
C                                      
Stronger than this soul divided     

Chorus: G Dm Am C
All these years I never really knew what love is
Till I found you... found you
All these years I never really knew what love is
                      C hold
Till I found you... found you...

Repeat Intro.


(Either Verse 1 style or G Dm Am C)
This new faith where the altar is my bed
Where the church feels like a motel room
When gold turns to lead
    G hold
Hello
             Dm hold
Do you believe
    Guitar II??
e|-5-----5-----5-----|
B|---5-5---5-5---5---|
G|-------------------|
D|-------------------|
A|-------------------|
E|-------------------|

          (Am)           (Am hold)
Love is stronger than us all
    Guitar II palakasin?
e|-5-----5-----5-----|
B|---5-5---5-5---5---|
G|-------------------|
D|-------------------|
A|-------------------|
E|-------------------|
(C)
Stronger than two souls divided
e|-3-----3-----3-----|
B|---3-3---3-3---3---|
G|-------------------|
D|-------------------|
A|-------------------|
E|-------------------|


Refrain 2: (Same chords w/ Refrain 1)

I-you burn'n like fire from below, sears the flesh feeds the soul's desire
                           Am                                    C
I-you stronger than before rising through the dust like a phoenix

Repeat Chorus.
Ooh hoh.

Solo: 

Gtr. I
e|-7-----7-----7---7-----7-----7---7-----7-----7---10-------10-------10----|
B|---8-8---8-8---8---7-7---7-7---7---9-9---9-9---9----10-10----10-10----10-|
G|-------------------------------------------------------------------------|
D|-------------------------------------------------------------------------|
A|-------------------------------------------------------------------------|
E|-------------------------------------------------------------------------|
                                     Gtr. II
                                     e|------------------------------------|
                                     B|-------------------------------13/15|
                                     G|-----5h7-7-7/9----------------------|
                                     D|-5h7--------------------------------|
                                     A|------------------------------------|
                                     E|------------------------------------|

Gtr. 1
e|-11-------11-------11----14-------14-------14----14-------14-------14----|
B|----11-11----11-11----11----14-14----14-14----14----14-14----14-14----14-|
G|-------------------------------------------------------------------------|
D|-------------------------------------------------------------------------|
A|-------------------------------------------------------------------------|
E|-------------------------------------------------------------------------|
                                  Gtr. II
                                  e|---------------------------------------|
                                  B|-14/16--14-----------------------------|
                                  G|-----------15--13/15-13----13/15-13----|
                                  D|------------------------16----------16-|
                                  A|---------------------------------------|
                                  E|---------------------------------------|

Gtr. I
e|-16-------16-------16----18-------18-------18----18-------18-------18----|
B|----16-16----16-16----16----18-18----18-18----18----18-18----18-18----18-|
G|-------------------------------------------------------------------------|
D|-------------------------------------------------------------------------|
A|-------------------------------------------------------------------------|
E|-------------------------------------------------------------------------|
Gtr. II
e|-------------------------------------------------------------------------|
B|-11/13---------------------12/14------------------11/13----11------------|
G|-------------------------------------------------------------------13----|
D|----------------------------------------------------------------------13-|
A|-------------------------------------------------------------------------|
E|-------------------------------------------------------------------------|

Gtr. I
e|-16-------16-------16----16-------16-------16----18-------18-------18----|
B|----16-16----16-16----16----16-16----16-16----16----18-18----18-18----18-|
G|-------------------------------------------------------------------------|
D|-------------------------------------------------------------------------|
A|-------------------------------------------------------------------------|
E|-------------------------------------------------------------------------|

                            Gtr. II
                         e|---------------------------------|
                         B|-11/13---------------------12/14-|
                         G|---------------------------------|
                         D|---------------------------------|
                         A|---------------------------------|
                         E|------------------------=--------|

Gtr. 1
e|-18-------18-------18----16-------16-------16----------------------------|
B|----18-18----18-18----18----16-16----16-16----16-------------------------|
G|-------------------------------------------------------------------------|
D|-------------------------------------------------------------------------|
A|-------------------------------------------------------------------------|
E|-------------------------------------------------------------------------|

Gtr. II
e|------------------------|
B|-11/13----11------------|
G|------------------13----|
D|---------------------13-|
A|------------------------|
E|------------------------|

Repeat Refrain 2
Repeat Chorus x2

YEHEY. Updated

************************************

| /   slide up
| \   slide down
| h   hammer-on

************************************

            
            
Suggest correction
Creating personal tab
Creating personal tab
You can edit any tab online and save it as your Personal.

You can edit, replace or remove any tab part or add personal notes – all changes will be seen only by you.

Personal tabs can be accessed anytime from any device, even offline.
Learn more »
Give kudos to tab author, rate the tab!
1 2 3 4 5
comments
print report bad tab
2 comments total.
0 reply
dasec 110 May 15, 2013 04:55 PM

pakicomment nalang ang corrections. acoustic lang nagamit pangkapa.

0 reply
LenHard23 10 Aug 17, 2013 11:17 PM

Great tab sir..

guest
You may want to rate the tab now too:
select rating
Wanna post a correction for this tab? Suggest correction