Oops, an error
Loading. Please wait.

Masaya Bass

version 1
version 1

Whole song

by Bamboo
9,377 views 12 this week
1 commentread comment
1 2 3 4 5
x 5
add to favorites
×
Save as Personal and add changes to this tab that will be seen only by you. Learn more ›
×
You can save this tab as Personal to edit and correct it or add notes. All changes will be seen only by you. Learn more »
save as personal
new!
launch autoscroll
font size
0
reset
guitar tuner
Autoscroll
slow
fast
+/-
esc
set tempo
stop
Author
transcribed by: ulo (etitskoymalaki@yahoo.com)
song:  masaya
band:  bamboo
album: as the music plays


intro:

|----------------|----------------|-------------4h5|4---------------|
|----------------|----------------|----------------|---5--7---------|
|------5---------|3-----7-----5---|----------------|----------------|
|3------------3h5|----------------|5-----5---------|----------------|

|----------------|----------------|----------------|----------------|
|----------------|----------------|----------------|----------------|
|------5---------|3-----7---------|----------------|----------------|
|3------------3h5|-------------2h3|5-----5---------|5-----5---------|


verse:

|----------------|----------------|----------------|----------------|
|----------------|----------------|----------------|----------------|
|----------------|3--3--3---------|----------------|------------2-5-|
|3--3--3---------|----------------|5--5--5--------3|5--5--5---------|

|----------------|----------------|----------------|----------------|
|----------------|----------------|----------------|----------------|
|----------------|3--3--3---------|----------------|----------------|
|3--3--3---------|----------------|5--5--5--------3|5--5--5-----7\--|

|----------------|----------------|----------------|----------------|
|----------------|----------------|----------------|----------------|
|----------------|3--3--3---------|----------------|----(pause)-----|
|3--3--3--------3|---------------8|5--5--5---------|----------------|


chorus:

|----------------|----------------|----------------|----------------|
|----------------|----------------|----------------|----------------|
|------------2-2-|3-3-3-3-3-3-3-3-|----------------|3-3-3-3-3-3-3-3-|
|3-3-3-5-5-5-----|----------------|5-5-5-5-5-5-5-5-|----------------|

|----------------|----------------|----------------|----------------|
|----------------|----------------|----------------|----------------|
|------------2-2-|3-3-3-3-3-3-3-3-|----------------|3---------------|
|3-3-3-5-5-5-----|----------------|5-5-5-5-5-5-5-5-|----------------|


post-chorus:

|----------------|----------7--7--|----------------|----------------|
|----------------|-------s9-----9-/9-5---7------/9-|7---------------|
|------5---------|3-----7---------|----------------|----------------|
|3------------3h5|----------------|----------------|--------------9\|

|----------------|-------/5-4-----|----------------|----------------|
|-----/7--/9-----|-----------\5-7-|------7---------|------7---------|
|----------------|3---------------|----------------|----------------|
|3---3--------3h5|----------------|5--5------------|5--5------------|


verse 2:

|----------------|----------------|----------------|----------------|
|----------------|----------------|------7------/9-|7-----7---------|
|----------------|3--3--3---------|----------------|----------------|
|3--3--3------3h5|----------------|5--5------------|---5----------8\|

|----------------|----------------|----------------|----------------|
|----------------|----------------|----------------|------7---------|
|----------------|3--3--3---------|----------------|----------------|
|3--3--3------3h5|-------------8p7|5--5--5---------|5---------------|

|----------------|----------------|-------------4h5|4---------------|
|----------------|----------------|----------------|---5-----5------|
|------2---------|3--5--7---------|----------------|------7---------|
|3--5------------|-------------8p7|5--3--5---------|--------------8\|

|----------------|----------------|----------------|----------------|
|----------------|----------------|----------------|----------------|
|------2---------|3--3--3-----3---|-------------(pause)-------------|
|3--5---------3h5|----------------|5---------------|----------------|


chorus:

|----------------|----------------|----------------|----------------|
|----------------|----------------|----------------|----------------|
|------------2-2-|3-3-3-3-3-3-3-3-|----------------|3-3-3-3-3-3-3-3-|
|3-3-3-5-5-5-----|----------------|5-5-5-5-5-5-5-5-|----------------|

|----------------|----------------|----------------|----------------|
|----------------|----------------|----------------|----------------|
|------------2-2-|3-3-3-3-3-3-3-3-|----------------|3---------------|
|3-3-3-5-5-5-----|----------------|5-5-5-5-5-5-5-5-|----------------|


bridge:

|----------------|----------------|----------------|----------------|
|----------------|----4-4--5------|----------------|----------------|
|----------------|5-7--------/7\--|3-----3-----3---|3/5---3----\2---|
|0-0-0-2-2-2-3-3-|--------------7-|----------------|-------------3p0|

|----------------|----------------|----------------|9109------------|
|----------------|----4-4--5------|----------------|----109---------|
|----------------|5-7--------/7\--|3-----3-----3---|-------109------|
|0-0-0-2-2-2-3-3-|--------------7-|----------------|----------108---|


chorus:

|----------------|----------------|----------------|----------------|
|----------------|----------------|----------------|----------------|
|------------2-2-|3-3-3-3-3-3-3-3-|----------------|3-3-3-3-3-3-3-3-|
|3-3-3-5-5-5-----|----------------|5-5-5-5-5-5-5-5-|----------------|

|----------------|----------------|----------------|----------------|
|----------------|----------------|----------------|----------------|
|------------2-2-|3-3-3-3-3-3-3-3-|----------------|3---------------|
|3-3-3-5-5-5-----|----------------|5-5-5-5-5-5-5-5-|----------------|
Suggest correction
comments
print report bad tab
1 comment total.
0 reply
daddylonghair 10 Dec 10, 2005 12:15 AM

etitsmoymalaki

guest
You may want to rate the tab now too:
select rating
Wanna post a correction for this tab? Suggest correction