Oops, an error
Loading. Please wait.

Muli Chords

48,970 views 57 this week
2 commentsread comments
1 2 3 4 5
3 more votes to show rating
add to favorites
launch autoscroll
font size
0
reset
transpose
0
reset
display chords
guitar tuner
Autoscroll
slow
fast
+/-
esc
set tempo
stop
Help us to improve Ultimate-Guitar.com Take our survey!
×
Title: Muli
Artist: Bamboo
Album: Tomorrow Becomes Yesterday

For any comments and Suggestions:

Text Me: 09082360710/09156169501
Friendster: boybassista@yahoo.com

Tuning: Standard

Intro: G-F-Em-F (2x)

Verse I:

G           F               Em     F     G   F Em F
Walang katulad mo walang kasing lakas ng tama mo
 G        F          Em     F
Salamat sa iyo aking guro't gabay
 G      F         Em            F
Dahil sa iyo ang buhay ko'y nag kasaysay
 G            F           Em       F
Sa malas kung ito minsan sinwerte din ako
 G    F        Em           F
Na makilala ang taong tulad mo

 G       Am       Bm         C 
Pasensya na sana'y maintindihan mo
                           G
Gusto lang kita makasama muli

Verse II: (Do Verse Chords)
Sa likod ng skwela sa tindhan ni manang
Daloy ng pag-ibig doon ko unang natikman
Sa daming ala-ala sana'y tandaan ninyo
Na ang problema ng isa problema ng grupo

 G       Am       Bm         C 
Pasensya na sana'y maintindihan mo
                           G
Gusto lang kita makasama muli

Bridge:  

 G             F                         
Para sa lahat ng minamahal ko ng tunay
 Am                    C
Andito lumisan sa puso ko'y
Buhay parin kayo
G-F-Am-C
Buhay kayo, sa puso buhay pa rin kayo


  |================================================================|
  | Reminder/s: If you want to "Learn How To Read Tab"             | 
  |           Just Send me a message on my Friendster or Text Me   |
  |================================================================|


Suggest correction
Give kudos to tab author, rate the tab!
1 2 3 4 5
comments
print report bad tab
2 comments total.
0 reply
little1424 30 Jun 30, 2009 08:39 AM

So far tama naman po ung tab,ung bridge di ko pa ntary. haha

Pero eto po ung tab na alam ko :D di ko sure kung tama to...

Intro:(2x)
|-----------------------|
|----2----2----2----2---|
|---0-0--0-0--0-0--0-0--|
|-----------------------|
|-----------------------|
|--3----1----0----1-----|

Verse:
|-----------------------|
|----2----2----2----2---|
|---0-0--0-0--0-0--0-0--|
|-----------------------|
|-----------------------|\
|--3----1----0----1-----| \
\ Repeat
|-------------------0---| / 3x
|----2----2----2-----2--| /
|---0-0--0-0--0-0--0----|/
|-----------------------|
|-----------------------|
|--3----1----0----1-----|

then....

|------------------8----|
|----2----5----7--------|
|---0-0--0-0--0-0-------| Di ko lang sure ung sa 8. haha
|-----------------------| Parang kasi inistrum siya dun e :)
|-----------------------|
|--3----5----7----------|

That's all po. yan lang alam ko e. hahaha

0 reply
dutins.s.s 10 Dec 17, 2013 11:50 AM

intro, hehe.. umuulit din sa ibang parte ng kanta.. :)


G F Em F
|---------------------------------|
|----3-------1---------0-------1--|
|-----0-------2---------0-------2-|
|--------------------2------------|
|---2-------3-----0-2---------3---|
|0-3-----0-1---------------0-1----|

guest
You may want to rate the tab now too:
select rating
Wanna post a correction for this tab? Suggest correction