Oops, an error
Loading. Please wait.

Muli tab

by Bamboo
11,708 views 3 this week
1 commentread comment
1 2 3 4 5
3 more votes to show rating
add to favorites
×
Save as Personal and add changes to this tab that will be seen only by you. Learn more ›
×
You can save this tab as Personal to edit and correct it or add notes. All changes will be seen only by you. Learn more »
launch autoscroll
font size
0
reset
how to read this tab
guitar tuner
edit
Autoscroll
slow
fast
+/-
esc
set tempo
stop
Difficulty
Title: Muli
Artist: Bamboo
Album: Tomorrow Becomes Yesterday

For any comments and Suggestions:

Facebook: vindicate_me17@hotmail.com

enjoy!
just saw this from a cover video from youtube..
http://www.youtube.com/watch?v=LlT2SiWRVO4


Tuning: Standard

Intro & Verse:

“Walang katulad mo..			
e |-----------------------------------------|				    
b |-----3-------0---------0---------0-------|
g |-------0-------0---------0---------0-----|
d |--------0--------0---------0---------0---|
a |---2--------0--------0---------0---------|
e |-3--------1--------0---------1-----------|
					     
                              ..taong tulad mo”
e |-----------------------------------3-------|
b |-----3--------0----------0-----------------|
g |-------0--------0----------0---------0-----|
d |---------0---------0---------0---------0---|
a |---2---------0---------0---------0---------|
e |-3---------1---------0---------1-----------|

(repeat all through out verse..)


chorus:
“pasensya na, sana maintindihan mo.."
e |---------------------------------0----|
b |-----3---------3---------3-------1----|
g |-------0---------0---------0-----0----|
d |---------0---------0---------0---2----|
a |---2---------0---------2---------3----|
e |-3---------0---------0-----------0----|

"gusto lang kita makasama, muli"

repeat intro
verse
chorus

Lyrics:
Walang katulad mo, walang kasing-lakas ng tama mo.
Salamat sa iyo aking guro't gabay.
Dahil sa iyo, ang buhay ko'y nagka-saysay.
Sa malas kong ito, minsan sinwerte din ako.
Nang makilala ang taong tulad mo.

Pasensya na, sana maintindihan mo.
Gusto lang kitang makasamang... muli.

Sa likod ng skwela, sa tindahan ni Nanang.
Daloy ng pag-ibig do'n kong unang natikman.
Sa 'daming alaala, sana tandaan ninyo.
Ang problema ng isa, problema ng grupo.

Pasensya na, sana maintindihan mo.
Gusto lang kitang makasamang... muli.

Para sa lahat ng minahal ko ng tunay.
Andito't lumisan, sa puso ko'y buhay pa rin kayo.
Buhay kayo, sa puso ko'y buhay pa rin kayo.



----the end---

            
            
Suggest correction
Creating personal tab
Creating personal tab
You can edit any tab online and save it as your Personal.

You can edit, replace or remove any tab part or add personal notes – all changes will be seen only by you.

Personal tabs can be accessed anytime from any device, even offline.
Learn more »
Give kudos to tab author, rate the tab!
1 2 3 4 5
comments
print report bad tab
1 comment total.
+1 reply
yana017 10 Sep 01, 2009 10:34 AM

“Walang katulad mo..			
e |-----------------------------------|
b |-----3-------3---------3---------3-------|
g |-------0-------0---------0---------0-----|
d |--------0--------0---------0---------0---|
a |---2--------0--------0---------0---------|
e |-3--------1--------0---------1-----------|

..taong tulad mo”
e |-----------------------------------3-------|
b |-----3--------3----------3-----------------|
g |-------0--------0----------0---------0-----|
d |---------0---------0---------0---------0---|
a |---2---------0---------0---------0---------|
e |-3---------1---------0---------1-----------|

guest
Wanna post a correction for this tab? Suggest correction