Oops, an error
Loading. Please wait.

Noypi Tab

version 4
version 4

Whole song

Interactive

1,973 views 1 this week
no commentswrite comment
1 2 3 4 5
1 last vote to show rating
add to favorites
launch autoscroll
font size
0
reset
how to read this tab
guitar tuner
Autoscroll
slow
fast
+/-
esc
set tempo
stop
Help us to improve Ultimate-Guitar.com Take our survey!
×
Song Name: NOYPI
Band Name: Bamboo
Tabbed by: Jaz R. Mendros
E-mail Ad: jaz_punkdemon333

Salahat ng mga noypi band lets create great music...

INTRO
e|------------------------------------------------------------|
B|------------------------------------------------------------|
G|------------------------------------------------------------|
D|--7-7-7-7-7-7--9-9-9-9-9-9--12-12-12-12-12-12--7-7-7-7-7-7--| x2
A|--5-5-5-5-5-5--7-7-7-7-7-7--9--9--9¡X-9--9--9---5-5-5-5-5-5--|
E|------------------------------------------------------------|
    (If your using a pick try to extend your pointing finger that it 
     will level to the pick and strum the two string at the same time. 
     Use this style in the intro, verse.)  

VERSE
e|---------------------------------------------------------|
B|---------------------------------------------------------|
G|---------------------------------------------------------|
D|--7-7-7-7-7-7---------------5-5-5-5-5-5------------------| x2
A|--5-5-5-5-5-5--7-7-7-7-7-7--3-3-3-3-3-3--5-5-5-5-5-5-----|
E|---------------5-5-5-5-5-5---------------3-3-3-3-3-3-----|
    Tingnan mo...

PRE-CHORUS
e|------------------------------------------------------------|
B|------------------------------------------------------------|
G|------------------------------------------------------------|
D|--7-7-7-7-7-7---------------5-5-5-5-5-5--5-5-5-5-5-5-5-5-5--| 
A|--5-5-5-5-5-5--7-7-7-7-7-7--3-3-3-3-3-3--5-5-5-5-5-5-5-5-5--|
E|---------------5-5-5-5-5-5---------------3-3-3-3-3-3-3-3-3--|
    Saan kaman...

CHORUS
e|---------------------------------------------------------|
B|---------------------------------------------------------|
G|--7-7-7-7-7-7---------------5-5-5-5-5-5------------------|
D|--7-7-7-7-7-7--7-7-7-7-7-7--5-5-5-5-5-5--5-5-5-5-5-5-----| x2
A|--5-5-5-5-5-5--7-7-7-7-7-7--3-3-3-3-3-3--5-5-5-5-5-5-----|
E|---------------5-5-5-5-5-5---------------3-3-3-3-3-3-----|
    Hoy! Pinoy ako...

REPEAT INTRO
REPEAT PRE-CHORUS
REPEAT CHORUS 4x 

ADLIB    
e|------------------------------------------------------------|
B|------------------------------------------------------------|
G|--7-7-7/9-9-9/11-11-11-11-11-11-11--------------------------|
D|--7-7-7/9-9-9/11-11-11-11-11-11-11-11-11-11-11-11-11-11-11--| 
A|--5-5-5/7-7-7/9¡X-9--9--9--9--9--9--11-11-11-11-11-11-11-11--|
E|-----------------------------------9--9--9--9¡X-9¡X-9--9--9---|


e|---------------------------------------------|
B|---------------------------------------------|
G|--5-5-5/7-7-7/9-9-9-9-9-9-9------------------|
D|--5-5-5/7-7-7/9-9-9-9-9-9-9-9-9-9-9-9-9-9-9--| 
A|--3-3-3/5-5-5/7-7-7-7-7-7-7-9-9-9-9-9-9-9-9--|
E|----------------------------7-7-7-7-7-7-7-7--|

e|---------------------------------------------|
B|---------------------------------------------|
G|--3-3-3/5-5-5/7-7-7-7-7-7-7------------------|
D|--3-3-3/5-5-5/7-7-7-7-7-7-7-7-7-7-7-7-7-7-7--| 
A|--1-1-1/3-3-3/5-5-5-5-5-5-5-7-7-7-7-7-7-7-7--|
E|----------------------------5-5-5-5-5-5-5-5--|

e|----------------------------------------------------|
B|----------------------------------------------------|
G|----------------------------------------------------| (repeat adlib 2x)
D|--6-6-6/8-8-8/10-10-10-10-10-10-10-5-5-5-5-5-5-5-5--| 
A|--6-6-6/8-8-8/10-10-10-10-10-10-10-5-5-5-5-5-5-5-5--|
E|--4-4-4/6-6-6/8--8--8--8--8--8--8--3-3-3-3-3-3-3-3--|
                
e|-------------------------|
B|----3-----2-----1-----3--|
G|---2-----2-----0-----0---|
D|-0-----2-----2-----0-----| x2
A|--0-----0-----3-----2----|
E|-------------------------|

PRE-CHORUS
e|-------------------------------------------------------------------------|
B|-------------------------------------------------------------------------|
G|-------------------------------------------------------------------------|
D|------------------------------------------------5-5-5-5-5-5-5-5-5-5-5-5--|
A|5-5-5-5-5-5-5-5-----------------3-3-3-3-3-3-3-3-5-5-5-5-5-5-5-5-5-5-5-5--|
E|----------------5-5-5-5-5-5-5-5-----------------3-3-3-3-3-3-3-3-3-3-3-3--|

CHORUS
e|-----------------------------------------------------------------|
B|-----------------------------------------------------------------|
G|--5---------3/9\7-7----------------------------------------------|
D|--5-(break)-3/9\7-7-7-7-7-7-7-7-7/10-10-10-10-10-10-5-5-5-5-5-5--| 
A|--3---------1/7\5-5-7-7-7-7-7-7-7/10-10-10-10-10-10-5-5-5-5-5-5--|
E|--------------------5-5-5-5-5-5-5/9--9--9--9--9--9--3-3-3-3-3-3--|

e|---------------------------------------------------------|
B|---------------------------------------------------------|
G|--7-7-7-7-7-7---------------5-5-5-5-5-5------------------| 3x
D|--7-7-7-7-7-7--7-7-7-7-7-7--5-5-5-5-5-5--5-5-5-5-5-5-----| 
A|--5-5-5-5-5-5--7-7-7-7-7-7--3-3-3-3-3-3--5-5-5-5-5-5-----|
E|---------------5-5-5-5-5-5---------------3-3-3-3-3-3-----|

OUTRO
e|------------------------------------------------------------|
B|------------------------------------------------------------|
G|--7-7-7/9-9-9/11-11-11-11-11-11-11--------------------------|
D|--7-7-7/9-9-9/11-11-11-11-11-11-11-11-11-11-11-11-11-11-11--| 
A|--5-5-5/7-7-7/9¡X-9--9--9--9--9--9--11-11-11-11-11-11-11-11--|
E|-----------------------------------9--9--9--9¡X-9¡X-9--9--9---|

e|---------------------------------------------|
B|---------------------------------------------|
G|--5-5-5/7-7-7/9-9-9-9-9-9-9------------------|
D|--5-5-5/7-7-7/9-9-9-9-9-9-9-9-9-9-9-9-9-9-9--| 
A|--3-3-3/5-5-5/7-7-7-7-7-7-7-9-9-9-9-9-9-9-9--|
E|----------------------------7-7-7-7-7-7-7-7--|

e|---------------------------------------------|
B|---------------------------------------------|
G|--3-3-3/5-5-5/7-7-7-7-7-7-7------------------|
D|--3-3-3/5-5-5/7-7-7-7-7-7-7-7-7-7-7-7-7-7-7--| 
A|--1-1-1/3-3-3/5-5-5-5-5-5-5-7-7-7-7-7-7-7-7--|
E|----------------------------5-5-5-5-5-5-5-5--|

e|----------------------------------------------------|
B|----------------------------------------------------|
G|----------------------------------------------------| (repeat outro 2x)
D|--6-6-6/8-8-8/10-10-10-10-10-10-10-5-5-5-5-5-5-5-5--| 
A|--6-6-6/8-8-8/10-10-10-10-10-10-10-5-5-5-5-5-5-5-5--|
E|--4-4-4/6-6-6/8--8--8--8--8--8--8--3-3-3-3-3-3-3-3--|

END
e|---------------|
B|---------------|
G|--7------------| 
D|--7-(let ring)-| 
A|--5------------|
E|---------------|


Mga taga Surigao nga Banda kung wala mo guitarist, lead guitarist, vocalist
available ko  e-mail me nalang kung gusto niyo... mag audition ko kung pwede
ko sa inyo standards. THANK YOU!!!!!!!!!!!!!!!!!!!!!!!!!!!!!!!!!!!ļļļ
Suggest correction
Give kudos to tab author, rate the tab!
1 2 3 4 5
comments
print report bad tab
guest
You may want to rate the tab now too:
select rating
Wanna post a correction for this tab? Suggest correction