Oops, an error
Loading. Please wait.

Peace Man tab

version 3
version 3

Whole song

by Bamboo
15,984 views 12 this week
4 commentsread comments
1 2 3 4 5
x 7
add to favorites
×
Save as Personal and add changes to this tab that will be seen only by you. Learn more ›
×
You can save this tab as Personal to edit and correct it or add notes. All changes will be seen only by you. Learn more »
launch autoscroll
font size
0
reset
how to read this tab
guitar tuner
edit
Autoscroll
slow
fast
+/-
esc
set tempo
stop
Legend:
.=staccato (putol sound)
/=slide [up] to
h=hammer-on
p=pull-off
s\=slide down to nowhere

Intro:
CM7-Dm7(4x)
e|---------------------I----------------------------------------|
B|---------------------I---------------------5-6p5------6/8-----|
G|-4-5-7.-4----------5-I-4-5-7.-4----------7-------7-5.---------|
D|----------5.---------I----------5.----------------------------|
A|-------------7-7/8---I-------------7-7/8----------------------|
E|---------------------I----------------------------------------|

e|---------------------------------------|
B|-8/10--8.------------------------------|
G|----------8p7-5------------------------|
D|-----------------5/7-5.----------------|
A|------------------------6p5-3----------|
E|---------------------------------------|

Verse:
CM7-Dm7(4x)

Chorus:
Dm7-G(4x)

Adlib:
CM7-Dm7(4x)
e|---------------------I----------------------------------------|
B|---------------------I---------------------5-6p5------6/8-----|
G|-4-5-7.-4----------5-I-4-5-7.-4----------7-------7-5.---------|
D|----------5.---------I----------5.----------------------------|
A|-------------7-7/8---I-------------7-7/8----------------------|
E|---------------------I----------------------------------------|

e|---------------------------------------|
B|-8/10--8.------------------------------|
G|----------8p7-5------------------------|
D|-----------------5/7-5.----------------|
A|------------------------6p5-3----------|
E|---------------------------------------|

(Verse)
...how to start or how to grow
e|-------------------------13-12.-8--7.-5.--3------|
B|-------------------------15-13.-10-8.-----5------|
G|------------------------------------------5------|
D|-------------------------------------------------|
A|-------------------------------------------------|
E|-------------------------------------------------|

(Chorus)

Solo:
CM7-Dm7
e|---------------------------------I
B|-----------5h6.-5.---------------I
G|-------5h7---------5/7-5---------I
D|-7h9-7-------------------5/7-5s\-I
A|---------------------------------I
E|---------------------------------I

e|--------------------------------------------|
B|------------5.-6p5------5.-6p5-------8/10-8-|
G|-------5-7.--------7-5.--------7.-5.--------|
D|-----5--------------------------------------|
A|-7h8----------------------------------------|
E|--------------------------------------------|

e|-------5-8.-8p7.-I-10p7--------I
B|-5h6h8-----------I--------------I
G|-----------------I------7h9p7---I
D|-----------------I------------9-I
A|-----------------I--------------I
E|-----------------I--------------I

e|------------------7h8h10-13.13.-/12-------------------------|
B|-------------8-10-------------------13-------------------13-|
G|------7-9-10---------------------------12----11.-10.-8/9----|
D|-9h10-------------------------------------14----------------|
A|------------------------------------------------------------|
E|------------------------------------------------------------|

(Chorus)

Outro:
e|---/7-------------/7------------3-|
B|-5----8--6------5----8--6-------5-|
G|-4-------7-/5---4-------7--/5---5-|
D|-5-------7------5-------7---------|
A|-3-------5------3-------5---------|
E|----------------------------------|

            
            
Suggest correction
Creating personal tab
Creating personal tab
You can edit any tab online and save it as your Personal.

You can edit, replace or remove any tab part or add personal notes – all changes will be seen only by you.

Personal tabs can be accessed anytime from any device, even offline.
Learn more »
comments
print report bad tab
4 comments total. Showing first comments.
0 reply
pinoyandproud 10 Sep 09, 2006 06:15 AM

your making it harder man in this part..
e|--------------------------------------------|
B|------------5.-6p5------5.-6p5-------8/10-8-|
G|-------5-7.--------7-5.--------7.-5.--------|
D|-----5--------------------------------------|
A|-7h8----------------------------------------|
E|--------------------------------------------|

e|-------5-8.-8p7.-I-10p7--------I
B|-5h6h8-----------I--------------I
G|-----------------I------7h9p7---I
D|-----------------I------------9-I
A|-----------------I--------------I
E|-----------------I--------------I


its easier if you change the last part to..
e|------------8p7.-I-10p7---------I
B|------8h19-------I--------------I
G|--9h10-----------I------7h9p7---I
D|-----------------I------------9-I
A|-----------------I--------------I
E|-----------------I--------------I

sorry of your too good to not notice that its easier to do that =) cat-b haha

great tab. ima fan

0 reply
pinoyandproud 10 Sep 09, 2006 06:17 AM

sorry that 8h19 is 8h10..typo.. =)

0 reply
welhim 21 Mar 19, 2007 06:48 PM

pre ang galing mo 99% tama
more power sau tol

guest
You may want to rate the tab now too:
select rating
Wanna post a correction for this tab? Suggest correction