Oops, an error
Loading. Please wait.

Tatsulok Tab

version 2
version 2

Whole song

Interactive

18,406 views 54 this week
no commentswrite comment
1 2 3 4 5
excellent!
x 4
add to favorites
launch autoscroll
font size
0
reset
how to read this tab
guitar tuner
Autoscroll
slow
fast
+/-
esc
set tempo
stop
Help us to improve Ultimate-Guitar.com Take our survey!
×
Author
TITLE:       tatsulok
ARTIST:      bamboo
ALBUM:       we stand alone together
TABBED BY:   silentrocker21
E-MAIL:      lorenz10_15@yahoo.com

<2 versions, first 1 is the chords and the 2nd is the tab... i also included the lyrics 
the song...>

 lorenz10_15@yahoo.com


GUITAR TUNING : STANDARD

<-------------------chordz------------------->

iNtRo:
Bm


VeRsE 1:
Bm - A - Bm - G - Bm - A - G - A - Bm


VeRsE 2:
Bm - A - Bm - G - Bm - A - G - A - Bm


pRe-ChOrUs:
G - F#m - G - F#m - Bm - A - G - A


ChOrUs 1:
Bm - F#m - G - A - Bm


VeRsE 3:
Bm - A - Bm - G - Bm - A - G - A - Bm


pRe-ChOrUs:
G - F#m - G - F#m - Bm - A - G - A


ChOrUs 2:
Bm - F#m - G - A - Bm


aDlIb:
Bm - F#m - G - Em - Em - A - F#m - Bm - Em - F#m


pRe-ChOrUs:
G - F#m - G - F#m - Bm - A - G - A


ChOrUs 3:
Bm - F#m - G - A - Bm


<--------------------------tab----------------------------->



InTrO:
e|--------------------------------------------------------|
B|---------------------------------------------------5~---|
G|-------2~---------2~---------2~---------2~---------4~---|
D|-----0----------0----------0----------0-----------------|
A|---2----------2----------2----------2-------------------|
E|--------------------------------------------------------|


vErSe 1:
  Totoy bilisan mo...
e|--------------------------------------------------------------------|
B|-------------------------------------------3------------------------|
G|-------4-----------2-----------4---------0------------4----------2--|
D|-----4-----------2-----------4----------------------4----------2----|
A|---2-----------0-----------2----------------------2----------0------|
E|---------------------------------------3----------------------------|

  At baka tamaan pa...
-------------------------------------------------------|
--------3----------2------------------------------5~---|
------0----------2------------2~----------2~------4~---|
----------------------------0-----------0--------------|
---------------0----------2-----------2----------------|
----3--------------------------------------------------|


  Totoy makinig ka...
e|--------------------------------------------------------------------|
B|-------------------------------------------3------------------------|
G|--------4----------2-----------4---------0------------4----------2--|
D|------4----------2-----------4----------------------4----------2----|
A|----2----------0-----------2----------------------2----------0------|
E|---------------------------------------3----------------------------|


  Ng di matapos-tapos na kaguluhang ito
---------------------------------------|
--------3----------2----------3--------|
------0----------2---------------------|
----------------------------4----------|
---------------0----------2------------|
----3----------------------------------|


PrE-ChOrUs:
      Hindi pula’t dilaw...
e|-----------------------------------------------|
B|--------3----------------------3---------------|
G|------0------------2---------0-------------2---|
D|-----------------4-----------------------4-----|
A|-----------------------------------------------|
E|----3----------2-----------3-----------2-------|

   Hangga’t marami...
----------------------------------------|
-------3----------2----------3----------|
-----4----------2----------0--------2---|
------------------------------------2---|
---2----------0---------------------0---|
-------------------------3--------------|


cHoRuS 1:
e|--------------------------------------------------------------|
B|---------------------------------------------------------5~---|
G|----4-------------------------------2~----------2~-------4~---|
D|----4------4------5------7--------0-----------0---------------|
A|----2------4------5------7------2-----------2-----------------|
E|-----------2------3------5------------------------------------|


VeRsE 2:
      Ngunit ng suminag...
e|------------------------------------------------|
B|-------------------------------------------3----|
G|--------4----------2-----------4---------0------|
D|------4----------2-----------4------------------|
A|----2----------0-----------2--------------------|
E|---------------------------------------3--------|

  Totoy kumilos ka...
------------------------------------------------------|
----------------------------3----------2----------3---|
------4----------2--------0----------2----------------|
----4----------2--------------------------------4-----|
--2----------0---------------------0----------2-------|
------------------------3-----------------------------|


PrE-ChOrUs:
      Hindi pula’t dilaw...
e|------------------------------------------------|
B|--------3----------------------3----------------|
G|------0------------2---------0-------------2----|
D|-----------------4-----------------------4------|
A|------------------------------------------------|
E|----3----------2-----------3-----------2--------|

   Hangga’t marami...
----------------------------------------|
-------3----------2----------3----------|
-----4----------2----------0--------2---|
------------------------------------2---|
---2----------0---------------------0---|
-------------------------3--------------|


cHoRuS 2:
e|------------------------------------|
B|------------------------------------|
G|----4-------------------------------|
D|----4------4------5------7------5---|
A|----2------4------5------7------5---|
E|-----------2------3------5------7---|


AdLiB:
e|----------------------------------------------------|
B|----------------------------------7---7-------------|
G|--------------------------7-9-7-9-------9-7-9-7-----|
D|----------7---9-7-----7h9-----------------------9---|
A|------7h9---------9-7-------------------------------|
E|--7~------------------------------------------------|

continuation...
------------------------|
-------------10---------|
----------------9^11~---|
---9-7-7h9--------------|
------------------------|
------------------------|


e|-----------------------------------------|
B|--7-10-7h8h7-----------------------------|
G|-------------11-9-7-11-9-7-9---7---------|
D|-----------------------------9---9-7-9---|
A|-----------------------------------------|
E|-----------------------------------------|

continuation...
-----------------------------------------------------------|
-----------------------------------------------------------|
-----9-7---7-7---------------------------------------------|
---9-----9-----9-7-------------------------------- 7h9-7/9-|
-------------------9-7---------7-9-7----7-9------7---------|
-----------------------10-7-10-------10-----7-10-----------|


e|-------------7-------7-------7-------7-------7-------|
B|-----------7---10^12---10^12---10^12---10^12---10^12-|
G|-----7-9-7-------------------------------------------|
D|---9-------------------------------------------------|
A|-----------------------------------------------------|
E|-----------------------------------------------------|

continuation...
7-7-7-10-7-7-10-7-7-10-7-7-10-7-7-10-7-7-10^12---10---9----|
--------------------------------------------------------10-|
-----------------------------------------------------------|
-----------------------------------------------------------|
-----------------------------------------------------------|
-----------------------------------------------------------|


pRe-ChOrUs:
      Hindi pula’t dilaw...
e|------------------------------------------|
B|------------------------------------------|
G|-----------------4------------------------|
D|---5------4------4------7------5------7---|
A|---5------4------2------7------5------7---|
E|---3------2-------------5------3------5---|


cHoRuS 3:
e|------------------------------------|
B|------------------------------------|
G|----4---------------------------4---|
D|----4------4------5------7------4---|
A|----2------4------5------7------2---|
E|-----------2------3------5----------|


----------------------------------------|
----------------------------------------|
---4-------------------------------2~---|
---4------4------5------7--------0------|
---2------4------5------7------2--------|
----------2------3------5---------------|


OuTrO:
e|---------------------------------------------|
B|---------------------------------------------|
G|-------2~---------2~---------2~---------2~---|
D|-----0----------0----------0----------0------|
A|---2----------2----------2----------2--------|
E|---------------------------------------------|


------------------------------------|
------------------------------------|
-------2~----------2~----------2~---|
-----0-----------0-----------0------|
---2-----------2-----------2--------|
------------------------------------|


Key:

T   - Tap (Strings)
PM  - Palm Muting
/   - Slide Up
\   - Slide Down
h   - Hammer-on
p   - Pull-off
~   - Let the note ringing
s   - Strum softly
c   - Continue and Continuation
^   - Bend


<---------------lyrics--------------->

Verse 1:
Totoy bilisan mo, bilisan mo ang takbo
Ilagan ang mga bombang nakatutok sa ulo mo
Totoy tumalon ka, dumapa kung kailangan
At baka tamaan pa ng mga balang ligaw

Verse 2:
Totoy makinig ka, wag kang magpa-gabi
Baka mapagkamalan ka’t humandusay dyan sa tabi
Totoy alam mo ba kung ano ang puno’t dulo
Ng di matapos-tapos na kaguluhang ito

Pre-Chorus:
Hindi pula’t dilaw tunay na magkalaban
Ang kulay at tatak ay di syang dahilan
Hangga’t marami ang lugmok sa kahirapan
At ang hustisya ay para lang sa mayaman

Chorus:
Habang may tatsulok at sila ang nasa tuktok
Di matatapos itong gulo

Verse 3:
Ngunit ng suminag,kay daming mga tao,
At ang dating munting bukid, ngayo’y sementeryo
Totoy kumilos ka, baliktarin ang tatsulok
Tulad ng dukha, nailagay mo sa tuktok

Repeat Pre-Chorus:
Repeat Chorus:

Repeat Pre-Chorus:
Repeat Chorus:

Outro:
Di matatapos itong gulo
Suggest correction
What's this?
You can suggest a correction to this tab. Community and Mods will review your correction and vote to approve or reject it.
comments
print report bad tab
guest
You may want to rate the tab now too:
select rating
Please do not post tabs as comments. Select "correction" instead!