Oops, an error
Loading. Please wait.

Shell Witch Hunter Robin Ost solo tab

by Bana
142 views 1 this week
2 commentsread comments
1 2 3 4 5
x 3
add to favorites
×
Save as Personal and add changes to this tab that will be seen only by you. Learn more ›
×
You can save this tab as Personal to edit and correct it or add notes. All changes will be seen only by you. Learn more »
launch autoscroll
font size
0
reset
how to read this tab
guitar tuner
edit
Autoscroll
slow
fast
+/-
esc
set tempo
stop
Author
Difficulty
intermediate
About this tab version
Full Lead Guitar Version (soloist). Was this info helpful? Yes No
This is the tab for the lead guitar in the 4 minute long guitar version of Bana's Shell,
from Witch Hunter Robin, the one played in the credits of the last episode

-THIS TAB INCLUDES BOTH THE STANDARD AND 1/2 STEP DOWN TUNINGS (1/2 down was the original tab, I've since
rewritten it to be played in standard tuning)

If you want to listen to the song, here it is:
http://67.159.62.2/ost/witch-hunter-robin-original-soundtrack-2/zzzkaxeycg/23-shell-guitar-ver-.mp3


Please note, to get the correct effect, you should aim for a harsh tone on the amp but
set your guitar to the neck pick-up. This will give you that nice blues-rock tone that 
makes this song so great.
I haven't split the song up into verses or chorus, as the whole thing is one huge solo.

#DO NOT TAKE SPACING AS ACCURATE TIMING, LISTEN TO AUDIO TO PLAY CORRECTLY, TAB DOES NOT 
USE TIME SIGNATURES#

STANDARD TUNING

e|--------------------------------------------------------------------------------------|
B|----------------------------14--------------------------------------------------------|
G|-------11-11----11-13-13b15----13b15-13b15r13--11-------11----------------------------|
D|-11-13-------13-------------------------------------13------11h13--11h13--------------|
A|--------------------------------------------------------------------------11--13------|
e|----------------------------------------------------------------------------------11--|

e|--------------------------------------------------------14-----14-----14-------------------------11-14-14b|
B|-----14------14----------------------14-----14--11--14b----14b----14b----14br-11-----11--14--14b----------|
G|-13b-----13b----13br--11------11--13b----13b-------------------------------------13b----------------------|
D|---------------------------13-----------------------------------------------------------------------------|
A|----------------------------------------------------------------------------------------------------------|
e|----------------------------------------------------------------------------------------------------------|

e|-14----11 13p11-14-13-14-14b--13--14-----------------------------------------|
B|--------------------------------------11-------------------------------------|
G|------------------------------------------11---------------------------------|
D|----------------------------------------------11-----------------------------|
A|--------------------------------------------------9--------------------------|
e|-----------------------------------------------------------------------------|

e|--------------------14------14-------------------------------------------------------------|
B|----------------14b-----14b-----14br----12h14p12\11 12 11h12p11----------------------------|
G|-----------------------------------------------------------------11--11/13-----------------|
D|----------------------------------------------------------------------------11/13--11/13---|
A|-------------------------------------------------------------------------------------------|
e|-9h11--9h11--------------------------------------------------------------------------------|

e|-----------------------------------------------------------------------------------------------------------|
B|-13-13-11------13br-11---13-11---------------14------14----------------------------------------------------|
G|-13-13-11------13br-11---13-11-----------13b----13b----13br--11h13p11--10--11--10h11p10--------------------|
D|-------------13-------13-------13-11h13-------------------------------------------------11/13--------------|
A|-----------------------------------------------------------------------------------------------11/13-------|
e|-----------------------------------------------------------------------------------------------------13\11-|

e|--------------------------------------------------------------------------------------|
B|--------------------------------------13-13-------------------------------------------|
G|-------------------6-6---6---6/8--8---13-13--11-11--10h11p10----10--------------------|
D|---------------8-8-----8---8---------------------------------13------11\9-11-(8)------|
A|--------------------------------------------------------------------------------------|
e|----7--8--9---------------------------------------------------------------------------|

The first section means slide from 6 to 8,and wiggle the 8, then slide from 13 to 15, 
immediately 1/4 bend the
15 and release back to 15, which you then wiggle and hold for a bit.
The 15b17 and onwards section means bend 15 up to sound like 17, and hold there,
plucking the note 4 times
before releasing back to 15, which you then pick once more.

e|------------------------16b18-18-18-18r-16----14h16p14--13--14-13h14p13-----------------------|
B|------------------------------------------------------------------------14--------------------|
G|--------13/15b[qr]r(15)----------------------------------------------------15-----------------|
D|-6/(8)------------------------------------------------------------------------16--------------|
A|---------------------------------------------------------------------------------16--13-------|
e|----------------------------------------------------------------------------------------------|

e|-------------------------------------------------------------14-------14-------14-------14--------|
B|--------------------14-----14-----14-----14-----11--14-14b16----14b16----14b16----14b16----14br---|
G|-------11----11-13b----13b----13b----13b----13b---------------------------------------------------|
D|-11-13----13--------------------------------------------------------------------------------------|
A|--------------------------------------------------------------------------------------------------|
e|--------------------------------------------------------------------------------------------------|

Again for this section, the 15b17 and onward means bend 15 to sound like 17, hold and
then pick the string 3
times. Then pick 17 on the bottom string.
e|-11h14--14--16-14--13-14-16-16b18-18-18-18r-16-14-16-14-13------------------------------------------------|
B|------------------------------------------------------------14--------pb13-13---b13r-11----13-b13r-11-----|
G|----------------------------------------------------------------15----pb13-13---b13r-11----13-b13r-11-13--|
D|-------------------------------------------------------------------16--------------------13-----------13--|
A|----------------------------------------------------------------------------------------------------------|
e|----------------------------------------------------------------------------------------------------------|
  (There's a breif rest inbetween these sections)
e|-------14--------14---------------------------------------------------------------------------------------|
B|-14b16-----14b16-----14b16r---12h14p12-11h12p11-----------------------------------------------------------|
G|------------------------------------------------11/13-----------------------------------------------------|
D|------------------------------------------------------11/13----11h13-11-----------------------------------|
A|------------------------------------------------------------------------11h13-11--13\11-9-----------------|
e|--------------------------------------------------------------------------------------------9h11-9h11-----|

e|-9b--7-----9b--7-------------9b--7---------------9b--7-----9b--7------------9b--7-------------------|
B|---------7----------7-7-7------------7--6-7---------------7----------7-7-7---------------7--6--7--9------|
G|---------------------------------------------6h8----------------------------------------------------------|
D|----------------------------------------------------------------------------------------------------------|
A|----------------------------------------------------------------------------------------------------------|
e|----------------------------------------------------------------------------------------------------------|

e|--------------------------------------------------------------------------------------|
B|----------------------------14--------------------------------------------------------|
G|-------11-11----11-13-13b15----13b15-13b15r13--11-------11----------------------------|
D|-11-13-------13-------------------------------------13------11h13--11h13--------------|
A|--------------------------------------------------------------------------11--13------|
e|----------------------------------------------------------------------------------11--|

e|----------------------------------------------------------------------------------------------------------|
B|--------------------------------------13-13---------------------------------------------------------------|
G|-------------------6-6---6---6/8--8---13-13--11-11--10h11p10----10-----------------------13/15b[qr]r(15)--|
D|---------------8-8-----8---8---------------------------------13------11\9-11-(8)--6/(8)-------------------|
A|----------------------------------------------------------------------------------------------------------|
e|----7--8--9-----------------------------------------------------------------------------------------------|
    Keep the bend on the 13 held until the release. (The 13 is bent just a bit higher 
than 14th fret's tone)
e|----------------------------------------------------------------------------------------------------------|
B|-14------14--14--14--14-----------------------------------------------------------------------------------|
G|-13b[hf]-13--13--13r-13--11h13p11-10h11p10--------10-11-13br-11-10-11-------------------------------------|
D|-------------------------------------------11--13---------------------11----------------------------------|
A|-------------------------------------------------------------------------11--9--8--9----------------------|
e|----------------------------------------------------------------------------------------------------------|

e|-------------------------------------------------------------14-------14-------14-------14--------|
B|--------------------14-----14-----14-----14-----11--14-14b16----14b16----14b16----14b16----14br---|
G|-------11----11-13b----13b----13b----13b----13b---------------------------------------------------|
D|-11-13----13--------------------------------------------------------------------------------------|
A|--------------------------------------------------------------------------------------------------|
e|--------------------------------------------------------------------------------------------------|
                                                                     Bend string before striking
e|-11h13--14--14/16-14--13-14-16-16b18-18-18-18r-16-14-16-14-13---------------------------------------------|
B|--------------------------------------------------------------14-------pb13-13---b13r-11----13-b13r-11----|
G|----------------------------------------------------------------15-----pb13-13---b13r-11----13-b13r-11-13-|
D|------------------------------------------------------------------16--------------------13-------------13-|
A|----------------------------------------------------------------------------------------------------------|
e|----------------------------------------------------------------------------------------------------------|

e|-------14--------14---------------------------------------------------------------------------------------|
B|-14b16-----14b16-----14b16r---12h14p12-11h12p11-----------------------------------------------------------|
G|------------------------------------------------11/13-----------------------------------------------------|
D|------------------------------------------------------11/13----11h13-11-----------------------------------|
A|------------------------------------------------------------------------11h13-11--13\11-9-----------------|
e|--------------------------------------------------------------------------------------------9h11-9h11-----|

Hold this bend, so that the 15s played afterwards are 13s bent to sound as 15s
e|----------------------------------------------------------------------------------------------------|
B|----------------------------14----------------------------------------------------------9----9------|
G|--13b15-15-15r-11-----13b15----15r-11----11----------------------------------6---6-8/10----8b-------|
D|------------------13------------------13----13--11----11-----------------6-8---8--------------------|
A|---------------------------------------------------13----13\11-9-11---------------------------------|
e|---------------------------------------------------------------------11-----------------------------|

e|-----9-9-----9-----9-------14-14-14-13--11-13-13h14-14b-13-11----11---------------------------------------|
B|-9b-------9b----9b----9br-------------------------------------14----14b-13-11-----------------------------|
G|----------------------------------------------------------------------------------11-13p12p11-------------|
D|----------------------------------------------------------------------------------------------13-11-------|
A|----------------------------------------------------------------------------------------------------11b-9-|
e|----------------------------------------------------------------------------------------------------------|
                                   Wiggle these 13s   Hold this bend for 10 to sound like 11.
e|-------------------------14-14-14br-13-13-13-----------------------------------|
B|-12-12-12-14-15-15-15b17-------------------------7---------7--------6----------|
G|-------------------------------------------------10b11-----11-------8b10-------|
D|-------------------------------------------------------------------------------|
A|-------------------------------------------------------------------------------|
e|-------------------------------------------------------------------------------|

e|--------------------------------------------------------------------------------14-----14-14--14----------|
B|-14--14-----14-----14-------------------14-14--14-----14-----14-------11-14-14b----14b----14b-14br--------|
G|-13b----13b----13b----13br-11----11-13b----13b----13b----13b----pb13r-------------------------------------|
D|------------------------------13--------------------------------------------------------------------------|
A|----------------------------------------------------------------------------------------------------------|
e|----------------------------------------------------------------------------------------------------------|

e|-11--13-14-14-14br----11----------------------------------------------------------------------------------|
B|-------------------14----14br---------------------------------------------------------------14-----14-14--|
G|-------------------------------13-11-10--11p10--------------------------------11----11--13b----13b----13br|
D|-----------------------------------------------11/13-11----------11----11-13b----13-----------------------|
A|-----------------------------------------------------------11-13----13------------------------------------|
e|----------------------------------------------------------------------------------------------------------|

e|----------------------------------------------------------------------------------------------------------|
B|-14--11-----14--11----13-11-------------------------------------------------------------------------------|
G|-13b-11-13--13b-11-13-13-11-13-11-13----13b15r-11----11-13b15r--13-11--------11-11-13b15r-11----11-13b-13b|
D|--------13---------13-------13-11-13--------------13-------------------11-13-----------------13-----------|
A|----------------------------------------------------------------------------------------------------------|
e|----------------------------------------------------------------------------------------------------------|

e|----------------------------------------------------------------------------------------------------------|
B|--------------11-11----11-11---13--11---11-11--13--11--13-------------------------------------------------|
G|--------11----11-11----11-11---13--11---11-11--13--11--13--13---------------------------------------------|
D|-11--13----13-------13-------------------------------------13---------------------------------------------|
A|----------------------------------------------------------------------------------------------------------|
e|----------------------------------------------------------------------------------------------------------|

e|----------------------------------------------------------------------------------------------------------|
B|--------------11-11----11-11--13--13-13-13br--11----------------------------------------------------------|
G|--------11----11-11----11-11--13--13-13-13br--11----------------------------------------------------------|
D|-11--13----13-------13----------------------------11h13---------------------------------------------------|
A|--------------------------------------------------------11h13--8h9----------------------------------------|
e|---------------------------------------------------------------------11---9---11--------------------------|






TUNING: HALF-STEP DOWN






[Solo]

D#|--------------------------------------------------------------------------------------|
A#|----------------------------15--------------------------------------------------------|
F#|-------12-12----12-14-14b16----14b16-14b16r14--12-------12----------------------------|
C#|-12-14-------14-------------------------------------14------12h14--12h14--------------|
G#|--------------------------------------------------------------------------12--14------|
D#|----------------------------------------------------------------------------------12--|

D#|--------------------------------------------------------15-----15-----15-------------------------12-15-15b|
A#|-----15------15----------------------15-----15--12--15b----15b----15b----15br-12-----12--15--15b----------|
F#|-14b-----14b----14br--12------12--14b----14b-------------------------------------14b----------------------|
C#|---------------------------14-----------------------------------------------------------------------------|
G#|----------------------------------------------------------------------------------------------------------|
D#|----------------------------------------------------------------------------------------------------------|

D#|-15----12 14p12-15-14-15-15b--14--15-----------------------------------------|
A#|--------------------------------------12-------------------------------------|
F#|------------------------------------------12---------------------------------|
C#|----------------------------------------------12-----------------------------|
G#|--------------------------------------------------10-------------------------|
D#|-----------------------------------------------------------------------------|

D#|--------------------15------15-------------------------------------------------------------|
A#|----------------15b-----15b-----15br----13h15p13\12 13 12h13p12----------------------------|
F#|-----------------------------------------------------------------12--12/14-----------------|
C#|----------------------------------------------------------------------------12/14--12/14---|
G#|-------------------------------------------------------------------------------------------|
D#|-10h12--10h12------------------------------------------------------------------------------|

D#|----------------------------------------------------------------------------------------------------------|
A#|-14-14-12------14br-12---14-12---------------15------15---------------------------------------------------|
F#|-14-14-12------14br-12---14-12-----------14b----14b----14br--12h14p12--11--12--11h12p11-------------------|
C#|-------------14-------14-------14-12h14-------------------------------------------------12/14-------------|
G#|-----------------------------------------------------------------------------------------------12/14------|
D#|-----------------------------------------------------------------------------------------------------14\12|

D#|--------------------------------------------------------------------------------------|
A#|--------------------------------------14-14-------------------------------------------|
F#|-------------------7-7---7---7/9--9---14-14--12-12--11h12p11----11--------------------|
C#|---------------9-9-----9---9---------------------------------14------12\10-12-(9)-----|
G#|--------------------------------------------------------------------------------------|
D#|----8--9--10--------------------------------------------------------------------------|

The first section means slide from 7 to 9,and wiggle the 9, then slide from 14 to 16, 
immediately 1/4 bend the
16 and release back to 16, which you then wiggle and hold for a bit.
The 17b19 and onwards section means bend 17 up to sound like 19, and hold there,
plucking the note 4 times
before releasing back to 17, which you then pick once more.

D#|------------------------17b19-19-19-19r-17----15h17p15--14--15-14h15p14-----------------------|
A#|------------------------------------------------------------------------15--------------------|
F#|--------14/16b[qr]r(16)----------------------------------------------------16-----------------|
C#|-7/(9)------------------------------------------------------------------------17--------------|
G#|---------------------------------------------------------------------------------17--14-------|
D#|----------------------------------------------------------------------------------------------|

D#|-------------------------------------------------------------15-------15-------15-------15--------|
A#|--------------------15-----15-----15-----15-----12--15-15b17----15b17----15b17----15b17----15br---|
F#|-------12----12-14b----14b----14b----14b----14b---------------------------------------------------|
C#|-12-14----14--------------------------------------------------------------------------------------|
G#|--------------------------------------------------------------------------------------------------|
D#|--------------------------------------------------------------------------------------------------|

Again for this section, the 17b19 and onward means bend 17 to sound like 19, hold and
then pick the string 3
times. Then pick 19 on the bottom string.
D#|-12h15--15--17-15--14-15-17-17b19-19-19-19r-17-15-17-15-14------------------------------------------------|
A#|------------------------------------------------------------15--------pb14-14---b14r-12----14-b14r-12-----|
F#|----------------------------------------------------------------16----pb14-14---b14r-12----14-b14r-12-14--|
C#|-------------------------------------------------------------------17--------------------14-----------14--|
G#|----------------------------------------------------------------------------------------------------------|
D#|----------------------------------------------------------------------------------------------------------|
  (There's a breif rest inbetween these sections)
D#|-------15--------15---------------------------------------------------------------------------------------|
A#|-15b17-----15b17-----15b17r---13h15p13-12h13p12-----------------------------------------------------------|
F#|------------------------------------------------12/14-----------------------------------------------------|
C#|------------------------------------------------------12/14----12h14-12-----------------------------------|
G#|------------------------------------------------------------------------12h14-12--14\12-10----------------|
D#|--------------------------------------------------------------------------------------------10h12-10h12---|

D#|-10b--8-----10b--8-------------10b--8---------------10b--8-----10b--8------------10b--8-------------------|
A#|---------8----------8-8-8------------8--7-8---------------8----------8-8-8---------------8--7--8--10------|
F#|---------------------------------------------7h9----------------------------------------------------------|
C#|----------------------------------------------------------------------------------------------------------|
G#|----------------------------------------------------------------------------------------------------------|
D#|----------------------------------------------------------------------------------------------------------|

D#|--------------------------------------------------------------------------------------|
A#|----------------------------15--------------------------------------------------------|
F#|-------12-12----12-14-14b16----14b16-14b16r14--12-------12----------------------------|
C#|-12-14-------14-------------------------------------14------12h14--12h14--------------|
G#|--------------------------------------------------------------------------12--14------|
D#|----------------------------------------------------------------------------------12--|

D#|----------------------------------------------------------------------------------------------------------|
A#|--------------------------------------14-14---------------------------------------------------------------|
F#|-------------------7-7---7---7/9--9---14-14--12-12--11h12p11----11-----------------------14/16b[qr]r(16)--|
C#|---------------9-9-----9---9---------------------------------14------12\10-12-(9)--7/(9)------------------|
G#|----------------------------------------------------------------------------------------------------------|
D#|----8--9--10----------------------------------------------------------------------------------------------|
    Keep the bend on the 14 held until the release. (The 14 is bent just a bit higher 
than 15th fret's tone)
D#|----------------------------------------------------------------------------------------------------------|
A#|-15------15--15--15--15-----------------------------------------------------------------------------------|
F#|-14b[hf]-14--14--14r-14--12h14p12-11h12p11--------11-12-14br-12-11-12-------------------------------------|
C#|-------------------------------------------12--14---------------------12----------------------------------|
G#|-------------------------------------------------------------------------12--10--9--10--------------------|
D#|----------------------------------------------------------------------------------------------------------|

D#|-------------------------------------------------------------15-------15-------15-------15--------|
A#|--------------------15-----15-----15-----15-----12--15-15b17----15b17----15b17----15b17----15br---|
F#|-------12----12-14b----14b----14b----14b----14b---------------------------------------------------|
C#|-12-14----14--------------------------------------------------------------------------------------|
G#|--------------------------------------------------------------------------------------------------|
D#|--------------------------------------------------------------------------------------------------|
                                                                     Bend string before striking
D#|-12h14--15--15/17-15--14-15-17-17b19-19-19-19r-17-15-17-15-14---------------------------------------------|
A#|--------------------------------------------------------------15-------pb14-14---b14r-12----14-b14r-12----|
F#|----------------------------------------------------------------16-----pb14-14---b14r-12----14-b14r-12-14-|
C#|------------------------------------------------------------------17--------------------14-------------14-|
G#|----------------------------------------------------------------------------------------------------------|
D#|----------------------------------------------------------------------------------------------------------|

D#|-------15--------15---------------------------------------------------------------------------------------|
A#|-15b17-----15b17-----15b17r---13h15p13-12h13p12-----------------------------------------------------------|
F#|------------------------------------------------12/14-----------------------------------------------------|
C#|------------------------------------------------------12/14----12h14-12-----------------------------------|
G#|------------------------------------------------------------------------12h14-12--14\12-10----------------|
D#|--------------------------------------------------------------------------------------------10h12-10h12---|

Hold this bend, so that the 16s played afterwards are 14s bent to sound as 16s
D#|----------------------------------------------------------------------------------------------------|
A#|----------------------------15----------------------------------------------------------10----10----|
F#|--14b16-16-16r-12-----14b16----16r-12----12----------------------------------7---7-9/11----9b-------|
C#|------------------14------------------14----14--12----12-----------------7-9---9--------------------|
G#|---------------------------------------------------14----14\12-10-12--------------------------------|
D#|---------------------------------------------------------------------12-----------------------------|

D#|-----10-10-----10-----10-------15-15-15-14--12-14-14h15-15b-14-12----12-----------------------------------|
A#|-10b-------10b----10b----10br-------------------------------------15----15b-14-12-------------------------|
F#|----------------------------------------------------------------------------------12-14p13p12-------------|
C#|----------------------------------------------------------------------------------------------14-12-------|
G#|----------------------------------------------------------------------------------------------------12b-10|
D#|----------------------------------------------------------------------------------------------------------|
                                   Wiggle these 14s   Hold this bend for 11 to sound like 12.
D#|-------------------------15-15-15br-14-14-14-----------------------------------|
A#|-13-13-13-15-16-16-16b18-------------------------8---------8--------7----------|
F#|-------------------------------------------------11b12-----12-------9b11-------|
C#|-------------------------------------------------------------------------------|
G#|-------------------------------------------------------------------------------|
D#|-------------------------------------------------------------------------------|

D#|--------------------------------------------------------------------------------15-----15-15--15----------|
A#|-15--15-----15-----15-------------------15-15--15-----15-----15-------12-15-15b----15b----15b-15br--------|
F#|-14b----14b----14b----14br-12----12-14b----14b----14b----14b----pb14r-------------------------------------|
C#|------------------------------14--------------------------------------------------------------------------|
G#|----------------------------------------------------------------------------------------------------------|
D#|----------------------------------------------------------------------------------------------------------|

D#|-12--14-15-15-15br----12----------------------------------------------------------------------------------|
A#|-------------------15----15br---------------------------------------------------------------15-----15-15--|
F#|-------------------------------14-12-11--12p11--------------------------------12----12--14b----14b----14br|
C#|-----------------------------------------------12/14-12----------12----12-14b----14-----------------------|
G#|-----------------------------------------------------------12-14----14------------------------------------|
D#|----------------------------------------------------------------------------------------------------------|

D#|----------------------------------------------------------------------------------------------------------|
A#|-15--12-----15--12----14-12-------------------------------------------------------------------------------|
F#|-14b-12-14--14b-12-14-14-12-14-12-14----14b16r-12----12-14b16r--14-12--------12-12-14b16r-12----12-14b-14b|
C#|--------14---------14-------14-12-14--------------14-------------------12-14-----------------14-----------|
G#|----------------------------------------------------------------------------------------------------------|
D#|----------------------------------------------------------------------------------------------------------|

D#|----------------------------------------------------------------------------------------------------------|
A#|--------------12-12----12-12---14--12---12-12--14--12--14-------------------------------------------------|
F#|--------12----12-12----12-12---14--12---12-12--14--12--14--14---------------------------------------------|
C#|-12--14----14-------14-------------------------------------14---------------------------------------------|
G#|----------------------------------------------------------------------------------------------------------|
D#|----------------------------------------------------------------------------------------------------------|

D#|----------------------------------------------------------------------------------------------------------|
A#|--------------12-12----12-12--14--14-14-14br--12----------------------------------------------------------|
F#|--------12----12-12----12-12--14--14-14-14br--12----------------------------------------------------------|
C#|-12--14----14-------14----------------------------12h14---------------------------------------------------|
G#|--------------------------------------------------------12h14--9h10---------------------------------------|
D#|----------------------------------------------------------------------12---10---12------------------------|

- I know that this version is in an unnecessary tuning, that is to do with how I first arranged the music as 
the secondary guitar was tuned a half step down.




Note: I have not labeled the individual parts of the song as the whole thing is one big
solo and the intro
as such is performed by a second guitar, not lead.


************************************

| r   Release
| b   Bend
| b[qr] Quarter bend
| b[hf] Half bend
| h   Hammer-on
| br  Bend release
| p   Pull-off
| \   Slide down
| /   Slide up
| (note) stay on and wiggle note slightly
| 

************************************

            
            
Suggest correction
Creating personal tab
Creating personal tab
You can edit any tab online and save it as your Personal.

You can edit, replace or remove any tab part or add personal notes – all changes will be seen only by you.

Personal tabs can be accessed anytime from any device, even offline.
Learn more »
Give kudos to tab author, rate the tab!
1 2 3 4 5
comments
print report bad tab
2 comments total.
0 reply
OnTheRisingWind 26 Dec 22, 2016 08:39 AM, edited on December 24 2016, 01:10 pm

Sorted

0 reply
NC6GodSaw 10 Dec 24, 2016 08:19 AM

Nice tab so far, great if you could finish it though!

guest
You may want to rate the tab now too:
select rating
Wanna post a correction for this tab? Suggest correction