Oops, an error
Loading. Please wait.

Do They Know Its Christmas Tab

version 2
version 2

Solo

Whole song

8,019 views 1 this week
1 commentread comment
1 2 3 4 5
x 5
add to favorites
launch autoscroll
font size
0
reset
how to read this tab
guitar tuner
×
Best way to learn
"Do They Know Its Christmas"
Autoscroll
slow
fast
+/-
esc
set tempo
stop
-----------------------------------------------------------------------
                  DO THEY KNOW IT'S CHRISTMAS - Band Aid 20
-----------------------------------------------------------------------
Tabbed by: Nathan Sturgess
Email:

Tuning: Standard

I figured this out after listening to it loads

e|--12-12-13-15----17-15-13-15-----------------------------------------|
B|--------------13------------13---------------------------------------|
G|---------------------------------------------------------------------|
D|---------------------------------------------------------------------|
A|---------------------------------------------------------------------|
E|---------------------------------------------------------------------|
           Then you get the second solo like this
e|--12-12-13-15-----17-15-13-15----17-15-13-12-13—12-10-8---------------|  4 times
B|--------------13--------------13--------------------------------------|
G|----------------------------------------------------------------------|
D|----------------------------------------------------------------------|
A|----------------------------------------------------------------------|
E|----------------------------------------------------------------------|

e|---------------------------------------------------------------------|
B|---------------------------------------------------------------------|
G|---------------------------------------------------------------------|
D|-10-10-10-13-10-8-8-8-6-6-6-5-5-5------------------------------------|
A|---------------------------------------------------------------------|
E|---------------------------------------------------------------------|

| /  slide up
| \  slide down
| h  hammer-on
| p  pull-off
| ~  vibrato
| +  harmonic
| x  Mute note
Suggest correction
comments
print report bad tab
1 comment total.
0 reply
xpert 10 Dec 13, 2004 07:00 PM

That's correct, not too difficult to come up with if experienced guitarist, but thanks for contributing. ****

guest
You may want to rate the tab now too:
select rating
Wanna post a correction for this tab? Suggest correction