Oops, an error
Loading. Please wait.

Love Passion Matador Tab

34 views 9 this week
no commentswrite comment
1 2 3 4 5
3 more votes to show rating
add to favorites
launch autoscroll
font size
0
reset
how to read this tab
guitar tuner
Autoscroll
slow
fast
+/-
esc
set tempo
stop
Help us to improve Ultimate-Guitar.com Take our survey!
×
Author
Difficulty
intermediate
About this tab version
Had a request to tab this song so here it is... Was this info helpful? Yes No
[Intro/Main Riff]
e|--------------------11-11-|--------------11-11-11-11-|
B|-8-8-X-8-8h9--9--9--11-11-|-8-8-X-8-8h9--11-11-11-11-|
G|-8-8-X-8-8----8--8--------|-8-8-X-8-8----------------|
D|-8-8-X-8-8h10-10-10-------|-8-8-X-8-8h10-------------|
A|--------------------------|--------------------------|
E|--------------------------|--------------------------|

e|--------------------11-11-|----------11-X-11-13-11-|
B|-8-8-X-8-8h9--9--9--11-11-|-6-6-X-6--11-X-11-13-11-|
G|-8-8-X-8-8----8--8--------|-7-7-X-7----------------|
D|-8-8-X-8-8h10-10-10-------|-8-8-X-8----------------|
A|--------------------------|-8-8-X-8----------------|
E|--------------------------|-6-6-X-6----------------|

[Pre-chorus]
e|-4~---|-3~---|-4~---|-3~-|
B|--6~--|--4~--|--6~--|-3~-|
G|---5~-|---5~-|---5~-|-0~-|
D|------|------|------|-0~-|
A|------|------|------|----|
E|------|------|------|----|

[Chorus]
e|-------------|-------------|-------------|-------------|
B|-------------|-------------|-------------|-------------|
G|-------------|-------------|-------------|-------------|
D|-------------|-8-8-8-8-8-8-|-------------|-5-5-5-5-5-5-|
A|-6-6-6-6-6-6-|-6-6-6-6-6-6-|-5-5-5-5-5-5-|-3-3-3-3-3-3-|
E|-4-4-4-4-4-4-|-------------|-3-3-3-3-3-3-|-------------|

e|-------------|-------------|-------------|-------------|
B|-------------|-------------|-------------|-------------|
G|-------------|-------------|-------------|-------------|
D|-------------|-8-8-8-8-8-8-|-------------|-------------|
A|-6-6-6-6-6-6-|-6-6-6-6-6-6-|-5-5-5-5-5-5-|-5-5-5-5-5-5-|
E|-4-4-4-4-4-4-|-------------|-3-3-3-3-3-3-|-3-3-3-3-3-3-|

[First Solo]
e|----18-------------|------------------------|----15------------------------------------------|
B|-20b--20b-p18---18-|-15h16p15--15h16p15--15-|-/19--19-15-19-15---15--------------------------|
G|--------------20---|---------17--------17---|------------------17--17-15-17-15----15---------|
D|-------------------|------------------------|----------------------------------19---19-17-15~|
A|-------------------|------------------------|------------------------------------------------|
E|-------------------|------------------------|------------------------------------------------|

[Second Solo]
e|-------------------------------------------|-------------------15------|
B|-11-11-11-11-11-11-11-11-9-9-9-9-9-9-9-9-8~|/16-15-16-18~-16h18--18-16-|
G|-------------------------------------------|---------------------------|
D|-------------------------------------------|---------------------------|
A|-------------------------------------------|---------------------------|
E|-------------------------------------------|---------------------------|

e|----------------------------------------------------|-------------------------|
B|-15h16p15--15---------------------------------------|-------------------------|
G|---------17--17-15-17-15--15------------------------|-------------------------|
D|------------------------18--18-17-18-17-15----------|------12--------12h13p12-|
A|-------------------------------------------18-17\13-|-13h15--15-14-15---------|
E|----------------------------------------------------|-------------------------|

e|-------------------------------------------------15--15-18-15-18-18/20-|-18h20-20-18-16-15h16p15h16p15-|
B|------------------------13--13-16-13-16/18-16-18---18------------------|-------------------------------|
G|---------12--12-15-12-15--15-------------------------------------------|-------------------------------|
D|-12h13h15--15----------------------------------------------------------|-------------------------------|
A|-----------------------------------------------------------------------|-------------------------------|
E|-----------------------------------------------------------------------|-------------------------------|

[Third Solo]
e|----18-------------|------------------------|----15------------------------------------------|
B|-20b--20b-p18---18-|-15h16p15--15h16p15--15-|-/19--19-15-19-15---15--------------------------|
G|--------------20---|---------17--------17---|------------------17--17-15-17-15----15---------|
D|-------------------|------------------------|----------------------------------19---19-17-15~|
A|-------------------|------------------------|------------------------------------------------|
E|-------------------|------------------------|------------------------------------------------|

    .  .  .     .  .  .     .  .
e|----------------------------------|------------------------|
B|----------------------------------|------------------------|
G|----------13----------13----------|------18-20-20b-p18--18-|
D|-13-13-13----13-13-13----13-13-13~|-19h20-------------19---|
A|----------------------------------|------------------------|
E|----------------------------------|------------------------|

e|---15-18-15--15----------------------------------------------|-------------------|-----|
B|/18--------18--18-16-18-16-15-16-15--15----------------------|-15b-16-15---------|-----|
G|-----------------------------------17--17-15-17-15-----------|----------17-15-17-|-----|
D|--------------------------------------------------18-17-15---|-------------------|-----|
A|----------------------------------------------------------18-|-------------------|-10\-|
E|-------------------------------------------------------------|-------------------|-8\--|

************************************

| h  Hammer-on
| ~  Vibrato
| p  Pull-off
| b  Bend
| /  Slide up
| \  Slide down
| .  Staccato

************************************
Suggest correction
Give kudos to tab author, rate the tab!
1 2 3 4 5
comments
print report bad tab
guest
You may want to rate the tab now too:
select rating
Wanna post a correction for this tab? Suggest correction