Oops, an error
Loading. Please wait.

Country Teen tab

793 views 18 this week
no commentswrite comment
1 2 3 4 5
x 6
add to favorites
×
Save as Personal and add changes to this tab that will be seen only by you. Learn more ›
×
You can save this tab as Personal to edit and correct it or add notes. All changes will be seen only by you. Learn more »
launch autoscroll
font size
0
reset
how to read this tab
guitar tuner
edit
Autoscroll
slow
fast
+/-
esc
set tempo
stop
Author
     [Intro]

D  Dsus2  D  Dsus2


     [Verse]

D                  Dsus2  D                           G
The night is wasted       sorry you passed out on the lawn

D          Dsus  D                          G
Hours later     you couldn't get him on the phone

                      Gm                       D  C  D
And when you got back home all the lights were on

D             Dsus2 D                                G
I can hear you      now and then the sound is almost gone

D                   Dsus2 D                         G
Well I'd be near you      if you willing to be near anyone

                   Gm                        D    C   D  C  Dsus4
It's never you at all when the sky begins to fall


     [Lead pre-chorus]

e|-----9-----7-------5----|
b|----9-----7-------7-----|
G|--10-----8-----5/7------|
D|------------------------|
A|------------------------|
E|------------------------|


     [Chorus]

                   G         C     D
Can you get to the point and walk away girl

                       G         C       D   Dsus4
You've been cutting it close for far too long.

                     G           C        D         C       D   C   D
There's an innocence lost throughout the day girrrrrrrrrrrrl


     Pick through this lead for chorus
e|--3--3--5-------------3--3--5-------------|
b|--3--5--7-7-7-8-7-5-3-3--5--7-------------| x3
G|--4--5--7-------------4--5--7-------------|
D|------------------------------------------|
A|------------------------------------------|
E|------------------------------------------|


     [Small solo after chorus 1]

e|-2------------2-------------7-7-7-8-8 7-6-6-6-8-8p6-5--3--5--3---|
b|-3--3/7-7-5-3-3-3/7-5-7-8-7-8-----------8-----------7--5--7--5---|
G|-2------------2-------------7-----------7-----------7--5--7--5---|
D|-----------------------------------------------------------------|
A|-----------------------------------------------------------------|
E|-----------------------------------------------------------------|


                      G           C      D
When you're flipping a coin you're half away girl

                         G               C           D
I know that it would be good if I could only pick a side

                       G        C     D
You know when somebody goes somebody stays girrrrrrrl


[Verse]

D           Dsus2  d                      G
I am leaving,      leaving town and going on

D                     Dsus2  D                       G
Well I'm sorry darling,      I never meant to do you harm

                Gm                             D
The situations wrong and the blame is all your own


[Outro]

D C D C D

Pick through this as lead to finish
e|-5--3--5--3------------------|
b|-7--5--7--5------------------|
G|-7--5--7--5------------------|
D|-----------------------------|
A|-----------------------------|
E|-----------------------------|



************************************

| p  Pull-off
| /  Slide up

************************************

            
            
Suggest correction
Creating personal tab
Creating personal tab
You can edit any tab online and save it as your Personal.

You can edit, replace or remove any tab part or add personal notes – all changes will be seen only by you.

Personal tabs can be accessed anytime from any device, even offline.
Learn more »
comments
print report bad tab
guest
You may want to rate the tab now too:
select rating
Wanna post a correction for this tab? Suggest correction