Oops, an error
Loading. Please wait.

Detlef Schrempf Tab

version 2
version 2

Whole song

7,248 views 15 this week
no commentswrite comment
1 2 3 4 5
excellent!
x 3
add to favorites
launch autoscroll
font size
0
reset
how to read this tab
guitar tuner
Autoscroll
slow
fast
+/-
esc
set tempo
stop
Help us to improve Ultimate-Guitar.com Take our survey!
×
Author
This is my first tab, it's not perfect but I think it's pretty accurate and it's the 
only tab I've seen with two gutars. So here it goes-

 /=slide
()=only lightly played
h=hammer on
p=pulloff

Intro

This part can be played by one guitar by compressing the two partsand using the octaves 
of the notes(ex. 4th fret on the A and the 6th fret on the G), but I used 2 guitars for accuracy.

First Guitar
e------------|
B------------|
G-11-/9/8/6--|
D------------|
A------------|
E------------|

Second Guitar
e------------|
B------------|
G------------|
D------------|
A-9-/7/6/4---|
E------------|

Intro/Verse(after x1 Intro, continue until Chorus)

First Guitar
e------------------------------------------------------------------------|
B------2------------------2----------------4----------------4------------|
G---------3----3--------------4----4----------4-----4----------4----4----|
D----4-------4--------4----------4-------2-------2--------2-------2------|
A(4)--------------(4)-----------------(2)-------------(2)----------------|
E 2----------------2-------------------0---------------0-----------------|

Second Guitar
e------------------------------------------------------------------------|
B--------------------------------------5---------------7-----------------|
G-3------------3/4----/6-------------------------------------------------|
D------------------------------------------------------------------------|
A------------------------------------------------------------------------|
E------------------------------------------------------------------------|

First Guitar
e------------------------------------------------------------------------|
B------2------------------2----------------4----------------4------------|
G---------3----3--------------4----4----------4-----4----------4----4----|
D----4-------4--------4----------4-------2-------2--------2-------2------|
A(4)--------------(4)-----------------(2)-------------(2)----------------|
E 2----------------2-------------------0---------------0-----------------|

Second Guitar
e------------------------------------------------------------------------|
B-------------------------------------------4----------------------------|
G-3------------3/4----/6---------------4h-6----6p-4----------------------|
D------------------------------------------------------------------------|
A------------------------------------------------------------------------|
E------------------------------------------------------------------------|

Chorus

First Guitar
e-------------------------------------------------------------|
B----------4-----------------------------4--------------------|
G------4--------4--------4----------4--------4-------4--------|
D--------------------4-------------------------------------4--|
A-2----------------------------2------------------------------|
E-----------------------------(0)-----------------------------|

Second Guitar(don't play until the first guitar part has played x2)
e-7---7----7-----7----7--------7----7-----7-----7-----7-------|
B--7----7----7-----7----7--------7----7-----7-----7-----7-----|
G----4----4-----4----4-----4-------4----4-----4-----4-----4---|
D-------------------------------------------------------------|
A-------------------------------------------------------------|
E-------------------------------------------------------------|

Post Chorus

First Guitar
e-------------------------------------------------------------|
B-----------------------4-------------------4-----------------|
G-4/6-/8-/11--------------------4--------------------4--------|
D-------------------------------------------------------------|
A-------------------------------------------------------------|
E----------------0-------------------0------------------------|

Second Guitar
e-------------------------------------------------------------|
B-------------------------------------------------------------|
G-------------------------------------------------------------|
D-------------------------------------------------------------|
A-2/4-/6-/9---------------------------------------------------|
E-------------------------------------------------------------|

First Guitar
e-------------------------------------------------------------|
B-----------------------4-------------------4-----------------|
G-4/6-/8-/4---------------------4--------------------4--------|
D-------------------------------------------------------------|
A-------------------------------------------------------------|
E----------------0-------------------0------------------------|

Second Guitar
e-------------------------------------------------------------|
B-------------------------------------------------------------|
G-------------------------------------------------------------|
D-------------------------------------------------------------|
A-2/4-/6-/2---------------------------------------------------|
E-------------------------------------------------------------|

Then repeat the Intro and go back into the Intro/Verse and then the Chorus.


The rest of the song goes in almost the same pattern, with a few elongations(such as an 
extra long post chorus used as an outro). Hope you enjoyed it and good luck playing!
Suggest correction
Give kudos to tab author, rate the tab!
1 2 3 4 5
comments
print report bad tab
guest
You may want to rate the tab now too:
select rating
Please do not post tabs as comments. Select "correction" instead!