Oops, an error
Loading. Please wait.

Ends Not Near Tab

version 2
version 2

Whole song

20,106 views 12 this week
1 commentread comment
1 2 3 4 5
x 5
add to favorites
launch autoscroll
font size
0
reset
how to read this tab
guitar tuner
Autoscroll
slow
fast
+/-
esc
set tempo
stop
Help us to improve Ultimate-Guitar.com Take our survey!
×
Author
Difficulty
novice
Band of horses
The End's not near



into/verse


e||--7-----7----------------------------------------------------|
B||-----9----9---9------9---9-----9-----------------------------|
G||-----------------11---------9-----9--------6---9------6------|
D||---------------------------------------7---------------------|
A||-------------------------------------------------------------|
E||-------------------------------------------------------------|




Chorus


e||-7--------2------------------------------------|
B||-9----2---4------------------------------------|
G||-9----2---4------------------------------------|
D||-9----2---4------------------------------------|
A||-7--------2------------------------------------|
E||-x--------x------------------------------------|  x 3



e||-5------2-----------------------------------|
B||-5------4------2----------------------------|
G||-6------4------2----------------------------|
D||-7------4------2----------------------------|
A||-7------2-----------------------------------|
E||-5------x-----------------------------------|



Bridge

e||------------------|
B||------------------|
G||--9-8h9p8---------|
D||-----------11--7--|
A||------------------|
E||------------------|
Suggest correction
comments
print report bad tab
1 comment total.
+4 reply
GuitarWalker57 167 Jun 29, 2009 01:31 PM

e||--7-----7----------------------------------------------------|
B||-----9----9/7/9------9---------9-----------------------------|
G||-----------------11---------9-----9--------6---9------6------|
D||---------------------------------------7---------------------|
A||-------------------------------------------------------------|
E||-------------------------------------------------------------|

guest
You may want to rate the tab now too:
select rating
Wanna post a correction for this tab? Suggest correction