Oops, an error
Loading. Please wait.

Factory Bass Tab

554 views 1 this week
no commentswrite comment
1 2 3 4 5
excellent!
x 2
add to favorites
launch autoscroll
font size
0
reset
guitar tuner
Tab Pro tools
  • play this tab
  • loop segment
  • change instrument
  • show fretboard
  • metronome
Autoscroll
slow
fast
+/-
esc
set tempo
stop
Contributor
Difficulty
novice
Factory Bass Tab®

x6
G|----------------|
D|----------------|
A|--3-0-----------|
E|--------0-3-----|

x4
G|---------------|
D|---------------|
A|--2(x3)/6------|
E|---------------|

G|---------------|
D|---------------|
A|--3(x3)-5------|
E|---------------|

x6
G|----------------|
D|----------------|
A|--3-0-----------|
E|--------0-3-----|

x4
G|---------------|
D|---------------|
A|--2(x3)/6------|
E|---------------|

G|---------------|
D|---------------|
A|--3(x3)-5------|
E|---------------|

X6
G|----------------|
D|----------------|
A|--3-0-----------|
E|--------0-3-----|

x4
G|---------------|
D|---------------|
A|--2(x3)/6------|
E|---------------|

x4
G|----------------|
D|----------------|
A|--3-0-----------|
E|--------0-3-----|

G|------|
D|------|
A|--3~--|
E|------|
comments
We did not receive enough feedback on this tab! Please rate:
print report bad tab
1 2 3 4 5
I want to post or [tab]
guest
You may want to rate the tab now too:
select rating
Please do not post tabs as comments. Select "correction" instead!