Oops, an error
Loading. Please wait.

I Go To The Barn Because I Like The Tab

version 3
version 3

Whole song

793 views 1 this week
no commentswrite comment
1 2 3 4 5
please rate
add to favorites
launch autoscroll
font size
0
reset
how to read this tab
guitar tuner
Autoscroll
slow
fast
+/-
esc
set tempo
stop
Help us to improve Ultimate-Guitar.com Take our survey!
×
Author
Difficulty
Tuning
novice
D# G# C# F# A# D#
-----------------------------------------------------------------------------
        I Go To The Barn Because I Like The - Band Of Horses
-------------------------------------------------------------------------------
Tabbed by: garthunkle
Email:

Tuning: Standard

I don't know why the other people that tabbed this used Em7 cause its
clearly an A chord. Oh well. This is my first tab btw so sorry if the
layout isn't very clear.

Enjoi!!

This is the basic pattern they use in the first section of the song.
I know the picking picking pattern isn't perfect but its close enough.

     D             A            G            A

e|---2-----2-------0-----0------3-----3------0-----0--------------------------|
B|-----3-----3-------2-----2------3-----3------2-----2------------------------|
G|-------2-----2-------2-----2------0-----0------2-----2----------------------|
D|---0------------------------------------------------------------------------|
A|-----------------0-------------------------0--------------------------------|
E|------------------------------3---------------------------------------------|


The only part thats different is when he sings "maybe i'll tell you sometime"
and "and you were right." This is what you play:

     G            G              A            A

e|---3-----3------3-----3--------0-----0------0-----0-------------------------|
B|-----3-----3------3-----3--------2-----2------2-----2-----------------------|
G|-------0-----0------0-----0--------2-----2------2-----2---------------------|
D|----------------------------------------------------------------------------|
A|-------------------------------0------------0-------------------------------|
E|---3------------3-----------------------------------------------------------|


Chords that are strummed in the last section of the song are again:

       D        A       G        A

e|-----2--------0-------3--------0--------------------------------------------|
B|-----3--------2-------3--------2--------------------------------------------|
G|-----2--------2-------0--------2--------------------------------------------|
D|-----0--------2-------0--------2--------------------------------------------|
A|--------------0-------2--------0--------------------------------------------|
E|----------------------3-----------------------------------------------------|
Suggest correction
Give kudos to tab author, rate the tab!
1 2 3 4 5
comments
print report bad tab
guest
You may want to rate the tab now too:
select rating
Please do not post tabs as comments. Select "correction" instead!