Oops, an error
Loading. Please wait.

Is There A Ghost Tab

version 2
version 2

Whole song

Interactive

9,460 views 9 this week
no commentswrite comment
1 2 3 4 5
3 more votes to show rating
add to favorites
launch autoscroll
font size
0
reset
how to read this tab
guitar tuner
Autoscroll
slow
fast
+/-
esc
set tempo
stop
Help us to improve Ultimate-Guitar.com Take our survey!
×
Author
Difficulty
novice
band: Band Of Horses
song: "Is There a Ghost"
album: Case To Begin (2007)

The song have 3 guitars.

Guitar 1

e------------------------------------------| x3
B------------------------------------------|
G--6--6--6--6--6-s-11---11---11---11---11--|
D---6--6--6--6--6s---11---11---11---11---11|
A-4--4--4--4--4--s9----9----9----9----9----|
E------------------------------------------|

I could sleep
I could sleep
I could sleep
I could sleep

e---------------------------------------------------------| 
B---------------------------------------------------------|
G---13----13----13----13----13--s-11---11---11---11---11--|
D-----13----13----13----13----13s---11---11---11---11---11|
A-11----11----11----11----11----s9----9----9----9----9----|
E---------------------------------------------------------|

when I lived alone
Is there a ghost in my house?

e------------------------------------------| x2
B------------------------------------------|
G--6--6--6--6--6-s-11---11---11---11---11--|
D---6--6--6--6--6s---11---11---11---11---11|
A-4--4--4--4--4--s9----9----9----9----9----|
E------------------------------------------|

I could sleep
I could sleep
I could sleep
I could sleep

e---------------------------------------------------------| x2
B---------------------------------------------------------|
G---13----13----13----13----13--s-11---11---11---11---11--|
D-----13----13----13----13----13s---11---11---11---11---11|
A-11----11----11----11----11----s9----9----9----9----9----|
E---------------------------------------------------------|

when I lived alone
Is there a ghost in my house?
when I lived alone
Is there a ghost in my house?
my house...

Breack:

Guitar 1

e---------------------------------| 
B---------------------------------|
G--5--5--6--5--5--5--5--6--5--5--5|
D---6--6--6--6--6--6--6--6--6--6--|
A-4--4--4--4--4--4--4--4--4--4--4-|
E---------------------------------|

Guitar 2

e---| x32
B---|
G(5)|
D-6-|
A-4-|
E---|

Verse x4 (Guitar 1 and Guitar 2)

e--------------------------------| 
B--------------------------------|
G-6-6-6-6-6-6-6-6-6-6-6-6-6-6-6-6|
D-6-6-6-6-6-6-6-6-6-6-6-6-6-6-6-6|
A-4-4-4-4-4-4-4-4-4-4-4-4-4-4-4-4|
E--------------------------------|

e------------------------------------------------| 
B------------------------------------------------|
G-11-11-11-11-11-11-11-11-11-11-11-11-11-11-11-11|
D-11-11-11-11-11-11-11-11-11-11-11-11-11-11-11-11|
A-9--9--9--9--9--9--9--9--9--9--9--9--9--9--9--9-|
E------------------------------------------------|

I could sleep
I could sleep
I could sleep
I could sleep

Guitar 1
e------------------------------------------------|
B------------------------------------------------|
G-13-13-13-13-13-13-13-13-13-13-13-13-13-13-13-13|
D-13-13-13-13-13-13-13-13-13-13-13-13-13-13-13-13|
A-11-11-11-11-11-11-11-11-11-11-11-11-11-11-11-11|
E------------------------------------------------| 

Guitar 2
e------------------------------------------------| 
B------------------------------------------------|
G-13-13-13-13-13-13-13-13-13-13-13-13-13-13-13-13|
D-x--x--x--x--x--x--x--x--x--x--x--x--x--x--x--x-|
A-11-11-11-11-11-11-11-11-11-11-11-11-11-11-11-11|
E------------------------------------------------|

Guitar 1 and guitar 2
e------------------------------------------------| 
B------------------------------------------------|
G-11-11-11-11-11-11-11-11-11-11-11-11-11-11-11-11|
D-11-11-11-11-11-11-11-11-11-11-11-11-11-11-11-11|
A-9--9--9--9--9--9--9--9--9--9--9--9--9--9--9--9-|
E------------------------------------------------|

when I lived alone
Is there a ghost in my house?

Guitar 1
e------------------------------------------------|
B------------------------------------------------|
G-13-13-13-13-13-13-13-13-13-13-13-13-13-13-13-13|
D-13-13-13-13-13-13-13-13-13-13-13-13-13-13-13-13|
A-11-11-11-11-11-11-11-11-11-11-11-11-11-11-11-11|
E------------------------------------------------| 

Guitar 2
e------------------------------------------------| 
B------------------------------------------------|
G-13-13-13-13-13-13-13-13-13-13-13-13-13-13-13-13|
D-x--x--x--x--x--x--x--x--x--x--x--x--x--x--x--x-|
A-11-11-11-11-11-11-11-11-11-11-11-11-11-11-11-11|
E------------------------------------------------|

Guitar 1 and guitar 2
e------------------------------------------------| 
B------------------------------------------------|
G-11-11-11-11-11-11-11-11-11-11-11-11-11-11-11-11|
D-11-11-11-11-11-11-11-11-11-11-11-11-11-11-11-11|
A-9--9--9--9--9--9--9--9--9--9--9--9--9--9--9--9-|
E------------------------------------------------|

when I lived alone
Is there a ghost in my house?
my house...

Verse x4 (Guitar 1 and Guitar 2)

e--------------------------------| 
B--------------------------------|
G-6-6-6-6-6-6-6-6-6-6-6-6-6-6-6-6|
D-6-6-6-6-6-6-6-6-6-6-6-6-6-6-6-6|
A-4-4-4-4-4-4-4-4-4-4-4-4-4-4-4-4|
E--------------------------------|

e------------------------------------------------| 
B------------------------------------------------|
G-11-11-11-11-11-11-11-11-11-11-11-11-11-11-11-11|
D-11-11-11-11-11-11-11-11-11-11-11-11-11-11-11-11|
A-9--9--9--9--9--9--9--9--9--9--9--9--9--9--9--9-|
E------------------------------------------------|

Guitar 3 x2

e-9-9-9-9-9-9-9-9-9-9-9-9-9-9-9-9-9-9-9-9-9-9-9-9-9-9-9-9-9-9-9-9|


I could sleep
I could sleep
I could sleep
I could sleep

Guitar 1
e------------------------------------------------|
B------------------------------------------------|
G-13-13-13-13-13-13-13-13-13-13-13-13-13-13-13-13|
D-13-13-13-13-13-13-13-13-13-13-13-13-13-13-13-13|
A-11-11-11-11-11-11-11-11-11-11-11-11-11-11-11-11|
E------------------------------------------------| 

Guitar 2
e------------------------------------------------| 
B------------------------------------------------|
G-13-13-13-13-13-13-13-13-13-13-13-13-13-13-13-13|
D-x--x--x--x--x--x--x--x--x--x--x--x--x--x--x--x-|
A-11-11-11-11-11-11-11-11-11-11-11-11-11-11-11-11|
E------------------------------------------------|

Guitar 1 and guitar 2
e------------------------------------------------| 
B------------------------------------------------|
G-11-11-11-11-11-11-11-11-11-11-11-11-11-11-11-11|
D-11-11-11-11-11-11-11-11-11-11-11-11-11-11-11-11|
A-9--9--9--9--9--9--9--9--9--9--9--9--9--9--9--9-|
E------------------------------------------------|

when I lived alone
Is there a ghost in my house?

Guitar 1
e------------------------------------------------|
B------------------------------------------------|
G-13-13-13-13-13-13-13-13-13-13-13-13-13-13-13-13|
D-13-13-13-13-13-13-13-13-13-13-13-13-13-13-13-13|
A-11-11-11-11-11-11-11-11-11-11-11-11-11-11-11-11|
E------------------------------------------------| 

Guitar 2
e------------------------------------------------| 
B------------------------------------------------|
G-13-13-13-13-13-13-13-13-13-13-13-13-13-13-13-13|
D-x--x--x--x--x--x--x--x--x--x--x--x--x--x--x--x-|
A-11-11-11-11-11-11-11-11-11-11-11-11-11-11-11-11|
E------------------------------------------------|

Guitar 1 and guitar 2
e------------------------------------------------| 
B------------------------------------------------|
G-11-11-11-11-11-11-11-11-11-11-11-11-11-11-11-11|
D-11-11-11-11-11-11-11-11-11-11-11-11-11-11-11-11|
A-9--9--9--9--9--9--9--9--9--9--9--9--9--9--9--9-|
E------------------------------------------------|

when I lived alone
Is there a ghost in my house?
my house...

Guitar 1 and Guitar 2 x4

e--------------------------------| 
B--------------------------------|
G-6-6-6-6-6-6-6-6-6-6-6-6-6-6-6-6|
D-6-6-6-6-6-6-6-6-6-6-6-6-6-6-6-6|
A-4-4-4-4-4-4-4-4-4-4-4-4-4-4-4-4|
E--------------------------------|

e------------------------------------------------| 
B------------------------------------------------|
G-11-11-11-11-11-11-11-11-11-11-11-11-11-11-11-11|
D-11-11-11-11-11-11-11-11-11-11-11-11-11-11-11-11|
A-9--9--9--9--9--9--9--9--9--9--9--9--9--9--9--9-|
E------------------------------------------------|

Guitar 3 x4 

e--------------------------------| 
B-4-6-6-4-6-6-4-6-6-4-6-6-4-6-6-6|
G--------------------------------|
D--------------------------------|
A--------------------------------|
E--------------------------------|

Final Breack:

Guitar 1 and Guitar 2

e------------------------------------------------| 
B------------------------------------------------|
G------------------------------------------------|
D-11-11-11-11-11-11-11-11-11-11-11-11-11-11-11-11|
A-11-11-11-11-11-11-11-11-11-11-11-11-11-11-11-11|
E-9--9--9--9--9--9--9--9--9--9--9--9--9--9--9--9-|

e------------------------------------------------| 
B------------------------------------------------|
G------------------------------------------------|
D-11-11-11-11-11-11-11-11-11-11-11-11-11-11-11-11|
A-11-11-11-11-11-11-11-11-11-11-11-11-11-11-11-11|
E-9--9--9--9--9--9--9--9--9--9--9--9--9--9--9--9-|

Guitar 1    |   Guitar 2

e-9-|           e----| 
B-9-|           B----|
G-10|           G----|
D-11|           D-11~|
A-11|           A-11~|
E-9-|           E-9-~|


Guitar 3

e-------------------------------------------------------------------| 
B-4-6-6-4-6-6-4-6-6-4-6-6-4-6-6-4-6-6-4-6-6-4-6-6-4-6-6-4-6-6-4-6-6~|
G-------------------------------------------------------------------|
D-------------------------------------------------------------------|
A-------------------------------------------------------------------|
E-------------------------------------------------------------------|
Suggest correction
Give kudos to tab author, rate the tab!
1 2 3 4 5
comments
print report bad tab
guest
You may want to rate the tab now too:
select rating
Wanna post a correction for this tab? Suggest correction