Oops, an error
Loading. Please wait.

Our Swords Bass Tab

version 2
version 2

Whole song

2,827 views 1 this week
no commentswrite comment
1 2 3 4 5
please rate
add to favorites
launch autoscroll
font size
0
reset
guitar tuner
Tab Pro tools
  • play this tab
  • loop segment
  • change instrument
  • show fretboard
  • metronome
×
Best way to learn
"Our Swords"
Autoscroll
slow
fast
+/-
esc
set tempo
stop
Contributor
Tabbed By : jaronthebassist

                                Our Swords                                 


                                                             Band of Horses
Bass



      E  E  E  E  E  E  E  E     E  E  E  E  E  E  E  E  12x
G||---------------------------|---------------------------||
D||*--------------------------|--------------------------*||
A||*--------------------------|--------------------------*||
E||---7--7--7--7--7--7--7--7--|--4--4--4--4--4--4--4--4---||


   Q    Q    Q    Q       Q    Q    Q    Q    12x  Q    Q    Q    Q     
-----------------------|------------4----------||----------------------|
*------------9---------|-------6---------6----*||-------9---------9----|
*-------9---------9----|----------------------*||--7---------7---------|
---7-------------------|--4--------------------||----------------------|


  Q    Q    Q    Q       Q    Q    Q    Q       Q    Q    Q    Q     
----------------------|----------------------|----------------------|
-------9---------9----|-------4---------4----|-------4---------4----|
--7---------7---------|--6---------6---------|--6---------6---------|
----------------------|----------------------|----------------------|


  Q    Q    Q    Q       Q    Q    Q    Q       Q     Q    Q     Q     
----------------------|----------------------|------------------------|
-------9---------9----|-------9---------9----|-------11---------11----|
--7---------7---------|--7---------7---------|--9----------9----------|
----------------------|----------------------|------------------------|


  Q     Q    Q     Q         Q    Q    Q    Q       Q    Q    Q    Q    12x
------------------------||-----------------------|------------4----------||
-------11---------11----||*------------9---------|-------6---------6----*||
--9----------9----------||*-------9---------9----|----------------------*||
------------------------||---7-------------------|--4--------------------||


  Q    Q    Q    Q       Q    Q    Q    Q       Q    Q    Q    Q     
----------------------|----------------------|----------------------|
-------9---------9----|-------9---------9----|-------4---------4----|
--7---------7---------|--7---------7---------|--6---------6---------|
----------------------|----------------------|----------------------|


  Q    Q    Q    Q       Q    Q    Q    Q       Q    Q    Q    Q     
----------------------|----------------------|----------------------|
-------4---------4----|-------9---------9----|-------9---------9----|
--6---------6---------|--7---------7---------|--7---------7---------|
----------------------|----------------------|----------------------|


  Q     Q    Q     Q       Q     Q    Q     Q     
------------------------|------------------------|
-------11---------11----|-------11---------11----|
--9----------9----------|--9----------9----------|
------------------------|------------------------|


    Q    Q     Q    Q        Q    Q    Q    Q     3x  Q    Q    Q    Q     
|--------8----11----8----|-------------8----------||----------------------|
|*--9--------------------|--------9---------9----*||--8---------8---------|
|*-----------------------|--11-------------------*||-------9---------9----|
|------------------------|------------------------||----------------------|


  Q    Q    Q    Q       Q    Q    Q    Q       Q    Q    Q    Q     
----------------------|----------------------|----------------------|
--9---------9---------|--8---------8---------|--6-------------------|
-------9---------9----|-------9---------9----|-------9----9----9----|
----------------------|----------------------|----------------------|


    Q    Q    Q    Q       Q    Q    Q    Q     4x   Q    Q    Q    Q     
|-----------------------|------------4----------||-----------------------|
|*------------9---------|-------6---------6----*||*-------9---------9----|
|*-------9---------9----|----------------------*||*--7---------7---------|
|---7-------------------|--4--------------------||-----------------------|


  Q    Q    Q    Q       Q    Q    Q    Q       Q    Q    Q    Q     
----------------------|----------------------|----------------------|
-------9---------9----|-------4---------4----|-------4---------4----|
--7---------7---------|--6---------6---------|--6---------6---------|
----------------------|----------------------|----------------------|


  Q    Q    Q    Q       Q    Q    Q    Q       Q     Q    Q     Q     
----------------------|----------------------|------------------------|
-------9---------9----|-------9---------9----|-------11---------11----|
--7---------7---------|--7---------7---------|--9----------9----------|
----------------------|----------------------|------------------------|


  Q     Q    Q     Q         W                  
-------------------------||-------------------||
-------11---------11----*||-------------------||
--9----------9----------*||-------------------||
-------------------------||--7----------------||




Duration Legend
---------------
W - whole
H - half
Q - quarter
E - 8th
S - 16th
T - 32nd
X - 64th
. - note dotted
|-n-|  - n-tuplets


Tablature Legend
----------------
L - tied note
x - dead note
g - grace note
(n) - ghost note
> - accentuded note
NH - natural harmonic
AH - artificial harmonic
TH - tapped harmonic
SH - semi harmonic
PH - pitch harmonic
h - hammer on
p - pull off
b - bend
br - bendRelease
pb - preBend
pbr - preBendRelease
brb - bendReleaseBend
\n/ - tremolo bar dip
\n - tremolo bar dive
-/n - tremolo bar Release up
/n\ - tremolo bar inverted dip
/n - tremolo bar return
-\n - tremolo bar Release down
S - shift slide
s - legato slide
/ -  slide into from below or out of upwards
\ -  slide into from above or out of downwards
~ - vibrato
W - wide vibrato
tr - trill
TP - tremolo picking
T - tapping
S - slap
P - pop
< - fade in
^ - brush up
v - brush down
comments
We did not receive enough feedback on this tab! Please rate:
print report bad tab
1 2 3 4 5
I want to post or [tab]
guest
You may want to rate the tab now too:
select rating
Please do not post tabs as comments. Select "correction" instead!