Oops, an error
Loading. Please wait.

Asleep At The Wheel Bass Tab

version 1
version 1

Intro

Interactive

1,652 views 12 this week
no commentswrite comment
1 2 3 4 5
excellent!
x 5
add to favorites
launch autoscroll
font size
0
reset
guitar tuner
Tab Pro tools
  • play this tab
  • loop segment
  • change instrument
  • show fretboard
  • metronome
×
Best way to learn
"Asleep At The Wheel"
Autoscroll
slow
fast
+/-
esc
set tempo
stop
Contributor
Difficulty
Tuning
novice
D A D G B E
//Band Of Skulls - Asleep At the wheel//

Tabbed by:  Noahriidge

Tuning:  Drop D


Intro:

G   /--------------------------------------------------------------/
D  /--------------------------------------------------------------/
A /--5--5--5--5--5--5--5--5--5--5--5--5--5--5--5--5--------------/
D/--------------------------------------------------------------/         x1


Verse:


G   /---------------------------------------------------------/
D  /---------------------------------------------------------/
A /--5--5--5--5--5--5--5--5---------------------------------/
D/---------------------------7--7--7--7--7--7--7--7--------/


G   /-------------------------------------------------------------/
D  /-------------------------------------------------------------/
A /-------------------------------------------------------------/
D/--8--8--8--8--8--8--8--8--7--7--7--7/-3--3--2--2-------------/          x3



G   /------------------------------------------------------------------------------------/
D  /------------------------------------------------------------------------------------/
A /--5--5--5--5--5--5--5--5------------------------------------------------------------/
D/---------------------------7--7--7--7--7--7--7--7--8--8--8--8--8--8--8--8--7/-------/   x1
 
                                                                      

Chorus:


G   /--------------------------------------------------------------------------------------/
D  /--------------------------------------------3-----------------------------------------/
A /----------------5-3-0------------------3h-5----5------------------5-3-0---------------/
D/--3---4---5---0--------5--3---4---5---0-------------3---4---5---0--------5--3---4---5-/      x1


Verse (Played Exactly the same as the previous verse):


G   /---------------------------------------------------------/
D  /---------------------------------------------------------/
A /--5--5--5--5--5--5--5--5---------------------------------/
D/---------------------------7--7--7--7--7--7--7--7--------/


G   /-------------------------------------------------------------/
D  /-------------------------------------------------------------/
A /-------------------------------------------------------------/
D/--8--8--8--8--8--8--8--8--7--7--7--7/-3--3--2--2-------------/          x3



G   /------------------------------------------------------------------------------------/
D  /------------------------------------------------------------------------------------/
A /--5--5--5--5--5--5--5--5------------------------------------------------------------/
D/---------------------------7--7--7--7--7--7--7--7--8--8--8--8--8--8--8--8--7/-------/   x1


Chorus:


G   /------------------------------------------------------------------------------------------------/
D  /--------------------------------------------3----------------------------------------------3----/
A /----------------5-3-0------------------3h-5----5------------------5-3-0-----------------------5-/
D/--3---4---5---0--------5--3---4---5---0-------------3---4---5---0--------5--3---4---5---0-------/ 



G   /--------------------------------------------------------------------------------------/
D  /--------------------------------------------3-----------------------------------------/
A /----------------5-3-0------------------3h-5----5------------------5-3-0---------------/
D/--3---4---5---0--------5--3---4---5---0-------------3---4---5---0--------5--3---4---5-/      x1


Bridge:


G   /---------------------------/
D  /---------------------------/
A /--5--5--5--5--5--5--5--5---/
D/---------------------------/       x1


G   /------------------------------/
D  /------------------------------/
A /--5--5/--10--10/--8--8--7--7--/
D/------------------------------/    x5


G   /---------------------------------------/
D  /---------------------------------------/
A /--5--8--5/--10--13--10/--8--12--8--7r--/
D/---------------------------------------/   x1


Guitar solo:


G   /-------------------------------------------------------------------------------------------------/
D  /--------------------------------------------3-----------------------------------------------3----/
A /----------------5-3-0------------------3h-5----5------------------5-3-0--------------------5---5-/
D/--3---4---5---0--------5--3---4---5---0-------------3---4---5---0--------5--3---4---5---0--------/        x1
 


G   /----------------------------------------------------------------------------------------------------/
D  /-------------------------------------------3--------------------------------------------------------/
A /----------------5-3-0---------------------5---5------------------5-3-0------------------------------/
D/--3---4---5---0--------5--3---4---5---0-------------3---4---5---0--------5--3---4---5/---8---9---10-/     x1


G   /--------------------------/
D  /--------------------------/
A /--5r/---10r/---8r---7--7--/
D/--------------------------/                x3


G   /---------------------------------------/
D  /---------------------------------------/
A /--5--8--5/--10--13--10/--8--12--8--7r--/
D/---------------------------------------/   x1


Chorus:


G   /--------------------------------------------------------------------------------------------------/
D  /--------------------------------------------3------------------------------------------------3----/
A /----------------5-3-0------------------3h-5----5------------------5-3-0---------------------5---5-/
D/--3---4---5---0--------5--3---4---5---0-------------3---4---5---0--------5--3---4---5---0---------/ 


G   /-------------------------------------------------------------------------------------------------/
D  /--------------------------------------------3----------------------------------------------------/
A /----------------5-3-0------------------3h-5----5------------------5-3-0--------------------------/
D/--3---4---5---0--------5--3---4---5---0-------------3---4---5---0--------5-----------------------/     x1


Outro:


G   /----------------------------------/
D  /----------------------------------/
A /----------------------------------/
D/--3---4---5/---8---9---10--0r-----/      x1



comments
print report bad tab
I want to post or [tab]
guest
You may want to rate the tab now too:
select rating
Please do not post tabs as comments. Select "correction" instead!