Oops, an error
Loading. Please wait.

Asleep At The Wheel Tab

version 1
version 1

Whole song

Interactive

9,466 views 24 this week
3 commentsread comments
1 2 3 4 5
x 14
add to favorites
launch autoscroll
font size
0
reset
how to read this tab
guitar tuner
Autoscroll
slow
fast
+/-
esc
set tempo
stop
Help us to improve Ultimate-Guitar.com Take our survey!
×
Difficulty
Tuning
intermediate
D A D G B E
Band Of Skulls - Asleep At the Wheel

Tabbed by: !Guit4Rist!

Tuning: Drop D (DADGBe)

Hello everyone, this is my first guitar tab I have written up. 
I am pretty sure these are the right notes which are played in the song, 
I hope it's enough for all of you guitarists to play with the song

 Intro:
   
 e|-----------------------------------------------------------------|
 B|-----------------------------------------------------------------|
 G|-----------------------------------------------------------------|
 D|-----------------------------------------------------------------|
 A|-5---5---5---5---5---5---5---5---5---5---5---5---5---5---5---5---|
 D|-----------------------------------------------------------------|
  
 Verse 1: 

 e|-------------------------------------------------------------------|
 B|-------------------------------------------------------------------|  -|
 G|-------------------------------------------------------------------|   |
 D|-------------------------------------------------------------------|   |
 A|-5-8-5---5---5---5---5---5-8-5-------------------------------------|   |
 D|---------------------------------7-10-7---7---7---7---7---7-10-7---|   |
                                                                          |
                                                                         x3
                                                                          |
 e|--------------------------------------------------------------------|  |
 B|--------------------------------------------------------------------|  |
 G|--------------------------------------------------------------------|  |
 D|--------------------------------------------------------------------|  |
 A|------------------------------------------------------0-------0-----| -|
 D|-8-12-8---8---8---8---8---8-12-8---7-10-7---7---7---3---3---2---2---| 


 e|-------------------------------------------------------------------|
 B|-------------------------------------------------------------------|  
 G|-------------------------------------------------------------------|   
 D|-------------------------------------------------------------------|   
 A|-5-8-5---5---5---5---5---5-8-5-------------------------------------|   
 D|---------------------------------7-10-7---7---7---7---7---7-10-7---|   
                                                                          
 e|---------------------------------------|  
 B|---------------------------------------|  
 G|---------------------------------------|  
 D|---------------------------------------|  
 A|---------------------------------------| 
 D|-8-12-8---8---8---8---8---8-12-8---7---|

 Chorus 1:

 e|----------------------------------------------------|
 B|----------------------------------------------------|
 G|----------------------------------------------------|
 D|---------------------------------------------3-0p---|
 A|-----------------5-3-0-------------------3-5h-------|
 D|-3---4---5---0---------5---3---4---5---0------------| 

 e|--------------------------------------|
 B|--------------------------------------|
 G|--------------------------------------|
 D|--------------------------------------|
 A|-----------------5-3-0----------------|
 D|-3---4---5---0---------5--3---4---5---| 

 Verse 2: 

 e|-------------------------------------------------------------------|
 B|-------------------------------------------------------------------|  -|
 G|-------------------------------------------------------------------|   |
 D|-------------------------------------------------------------------|   |
 A|-5-8-5---5---5---5---5---5-8-5-------------------------------------|   |
 D|---------------------------------7-10-7---7---7---7---7---7-10-7---|   |
                                                                          |
                                                                         x3
                                                                          |
 e|--------------------------------------------------------------------|  |
 B|--------------------------------------------------------------------|  |
 G|--------------------------------------------------------------------|  |
 D|--------------------------------------------------------------------|  |
 A|------------------------------------------------------0-------0-----| -|
 D|-8-12-8---8---8---8---8---8-12-8---7-10-7---7---7---3---3---2---2---| 


 e|-------------------------------------------------------------------|
 B|-------------------------------------------------------------------|  
 G|-------------------------------------------------------------------|   
 D|-------------------------------------------------------------------|   
 A|-5-8-5---5---5---5---5---5-8-5-------------------------------------|   
 D|---------------------------------7-10-7---7---7---7---7---7-10-7---|   
                                                                          
 e|---------------------------------------|  
 B|---------------------------------------|  
 G|---------------------------------------|  
 D|---------------------------------------|  
 A|---------------------------------------| 
 D|-8-12-8---8---8---8---8---8-12-8---7---| 

 Chorus 2:

 e|------------------------------------------------------|
 B|------------------------------------------------------|
 G|------------------------------------------------------|
 D|-----------------------------------------------3-0p---|
 A|-----------------5-3-0---------------------3-5h-------|
 D|-3---4---5---0---------5---3---4---5---0--------------|

 e|-----------------------------------------------------|
 B|-----------------------------------------------------|
 G|-----------------------------------------------------|
 D|-----------------------------------------------3-----|
 A|-----------------5-3-0---------------------------5---|
 D|-3---4---5---0---------5---3---4---5---0-------------|

 e|------------------------------------------------------|
 B|------------------------------------------------------|
 G|------------------------------------------------------|
 D|-----------------------------------------------3-0p---|
 A|-----------------5-3-0---------------------3-5h-------|
 D|-3---4---5---0---------5---3---4---5---0--------------|

 e|-------------------------------------|
 B|-------------------------------------|
 G|-------------------------------------|
 D|-------------------------------------|
 A|-----------------5-3-0---------------|
 D|-3---4---5---0-----------3---4---5---| 

 Bridge:

 e|---------------------------------|
 B|---------------------------------|
 G|---------------------------------|
 D|---------------------------------|
 A|-5---5---5---5---5---5---5---5---|
 D|---------------------------------|
 
 e|-----------------------------------|
 B|-----------------------------------|
 G|-----------------------------------|
 D|------------8--------7-------5-----| x5
 A|-5-8-5---10---10---8---8---7---7---| 
 D|-----------------------------------|
 
 e|-----------------------------|
 B|-----------------------------|
 G|-----------------------------|
 D|----------8------7-----5-----|
 A|-5-8-5-10---10-8---8-7---7---| 
 D|-----------------------------|
 
 Solo:
 
 e|--------------------------|
 B|--------------------------|
 G|-14~---12---10---12-10~---|
 D|--------------------------|
 A|--------------------------|
 D|--------------------------|
 
 e|-----------------------------|
 B|-----------------------------|
 G|-14~---12---10---12~-10------|
 D|-----------------------12~---|
 A|-----------------------------|
 D|-----------------------------|

 e|-----------------|
 B|-15--------------|
 G|-17br---17-------|
 D|-----------15~---|
 A|-----------------|
 D|-----------------|

 e|--------------------------------------------------|
 B|--------------------------------------------------|
 G|-14~---12---10---12-10-----------------15-16-17---|
 D|-----------------------12\/-15-16-17--------------|
 A|--------------------------------------------------|
 D|--------------------------------------------------| 

 e|------------------------------------------------------------------------------------|
 B|------------------------------------------------------------------------------------|
 G|------15---14---12-10------------15---14---12-10------------15---14---12-10---------|
 D|-12-------------------12-10-12-------------------12-10-12-------------------12-10---|
 A|------------------------------------------------------------------------------------|
 D|------------------------------------------------------------------------------------|

 e|----------------------------------|
 B|----------------------------------|
 G|----------15-17-15-14-15-14-------|
 D|-12-15-12-------------------17~---|
 A|----------------------------------|
 D|----------------------------------|  

 Chorus 3:
 
 e|------------------------------------------------------|
 B|------------------------------------------------------|
 G|------------------------------------------------------|
 D|-----------------------------------------------3-0p---|
 A|-----------------5-3-0---------------------3-5h-------|
 D|-3---4---5---0---------5---3---4---5---0--------------|

 e|---------------------------------------------------|
 B|---------------------------------------------------|
 G|---------------------------------------------------|
 D|---------------------------------------------3-----|
 A|-----------------5-3-0---------------------5---5---|
 D|-3---4---5---0---------5---3---4---5---0-----------|

 e|------------------------------------------------------|
 B|------------------------------------------------------|
 G|------------------------------------------------------|
 D|-----------------------------------------------3-0p---|
 A|-----------------5-3-0---------------------3-5h-------|
 D|-3---4---5---0---------5---3---4---5---0--------------| 

 e|---------------------------|
 B|---------------------------|
 G|---------------------------|
 D|---------------------------|
 A|-----------------5-3-0-----|
 D|-3---4---5---0---------5---| 

 Outro:

 e|----------------------|
 B|----------------------|
 G|----------------------|
 D|------------------0---|
 A|------------------0---|
 D|-3-4-5---8-9-10---0---|
 
Feel free to comment and rate
Thanks... Hope you enjoy


 ************************************

 | /   slide up
 | \   slide down
 | h   hammer-on
 | p   pull-off
 | ~   vibrato
 | +   harmonic
 | x   Mute note
 | b   Bend
 | pb  Pre-bend
 | br  Bend release
 | pbr Pre-bend release
 | brb Bend release bend 

 ************************************
Suggest correction
comments
print report bad tab
3 comments total.
0 reply
mikeswimby 483 Mar 31, 2014 09:16 AM

Great first tab! I couldn't be bothered to figure it out myself, so this was practically perfect. Thanks man

0 reply
warlockbond247 10 May 01, 2015 09:29 PM

I believe on the 7the fret it should be lower but im not sure it might just be my head messing with me... tell me what you guys think

0 reply
jamesarthur24 10 Feb 06, 2016 04:06 PM

perfect just perfect well done mate

guest
You may want to rate the tab now too:
select rating
Wanna post a correction for this tab? Suggest correction