Oops, an error
Loading. Please wait.

Brothers And Sisters Tab

1,095 views 12 this week
no commentswrite comment
1 2 3 4 5
accurate
x 3
add to favorites
launch autoscroll
font size
0
reset
how to read this tab
guitar tuner
Tab Pro tools
  • play this tab
  • loop segment
  • change instrument
  • show fretboard
  • metronome
×
Best way to learn
"Brothers And Sisters"
Autoscroll
slow
fast
+/-
esc
set tempo
stop
Contributor
Difficulty
novice
Tabbed by: Eric

Tuning: Standard

Intro
           x3
e|---------------------|---------------|
B|---------------------|---------------|
G|---------------------|---------------|
D|---------------------|---------------|
A|--6h7-8-8-8-8-8-8-8--|--6h7-8-8-8-8--|
E|---------------------|---------------|


Verse (0:10)
                             x3                   
e|-----------------|---------------------|
B|-----------------|---------------------|
G|-----------------|---------------------|
D|-----------------|---------------------|
A|--8-8-8-8-8-8-8--|--6h7-8-8-8-8-8-8-8--|
E|-----------------|---------------------|

e|---------------------------------------------------------------------|
B|---------------------------------------------------------------------|
G|---------------------------------------------------------------------|
D|--6h7-8-8-8-8-8-8-8-6h7-8-8-8-8-8-8----------------------------------|
A|------------------------------------8-8-8-8-8-8-8-6h7-8-8-8-8-8-8-8--|
E|---------------------------------------------------------------------|


Pre-Chorus (0:28)
e|--4-4-4-4-4-4-4-4-3---------------------------|
B|--6-6-6-6-6-6-6-6-5---------------------------|
G|--6-6-6-6-6-6-6-6-5---------------------------|
D|--6-6-6-6-6-6-6-6-5---------------------------|
A|--4-4-4-4-4-4-4-4-3----8-8-8-8-8-6h7-8-8-8-8--|
E|----------------------------------------------|

Verse (0:38)
Guitar 2 - follows the vocal melody
               x2
e|------1---1------------1------------|------------------------------------|
B|--1-4---4----------1-4---4p1--------|--------------------------------9\--|
G|-----------------------------3p1----|--3-3-1-3~---------3b-3-1h3p1-------|
D|---------------------------------3--|------------------------------------|
A|------------------------------------|------------------------------------|
E|------------------------------------|------------------------------------|


Pre-Chorus (0:56)
e|--4-4-4-4-4-4-4-4-3--|
B|--6-6-6-6-6-6-6-6-5--|
G|--6-6-6-6-6-6-6-6-5--|
D|--6-6-6-6-6-6-6-6-5--|
A|--4-4-4-4-4-4-4-4-3--|
E|---------------------|


Chorus (1:03)
e|--------------------------------------|
B|--------------------------------------|
G|--10--------------------------5-------|
D|--10-(x16)--6--------8--------5-(x9)--|
A|--8---------6-(x16)--8-(x16)--3-------|
E|------------4--------6----------------|


Verse (1:23)
Guitar 2 - follows the vocal melody
e|------1---1------------1------------|
B|--1-4---4----------1-4---4p1--------|
G|-----------------------------3p1----|
D|---------------------------------3--|
A|------------------------------------|
E|------------------------------------|

e|------1---4b-----------1------------|
B|--1-4---4----------1-4---4p1--------|
G|-----------------------------3p1----|
D|---------------------------------3--|
A|------------------------------------|
E|------------------------------------|

E|------------------------------------|
B|--------------------------------9\--|
G|--3-3-1-3~---------3b-3-1h3p1-------|
D|------------------------------------|
A|------------------------------------|
E|------------------------------------|


Pre-Chorus (1:42)
e|--4-4-4-4-4-4-4-4-3-------------------------------------4-4-4-4-4-4-4-4-3--|
B|--6-6-6-6-6-6-6-6-5-------------------------------------6-6-6-6-6-6-6-6-5--|
G|--6-6-6-6-6-6-6-6-5-------------------------------------6-6-6-6-6-6-6-6-5--|
D|--6-6-6-6-6-6-6-6-5-------------------------------------6-6-6-6-6-6-6-6-5--|
A|--4-4-4-4-4-4-4-4-3----8-8-8-8-8-6h7-8-8-8-8-8-8-8-8----4-4-4-4-4-4-4-4-3--|
E|---------------------------------------------------------------------------|


Chorus x2 (1:58)


Outro (2:37)
                              x7
e|-----------------|-----------------------|--4-4-4-4-4-4-4-4-3--|
B|-----------------|-----------------------|--6-6-6-6-6-6-6-6-5--|
G|-----------------|-----------------------|--6-6-6-6-6-6-6-6-5--|
D|-----------------|-----------------------|--6-6-6-6-6-6-6-6-5--|
A|--8-8-8-8-8-8-8--|--6h7-8-8-8-8-8-8-8-8--|--4-4-4-4-4-4-4-4-3--|
E|-----------------|-----------------------|---------------------|
comments
We did not receive enough feedback on this tab! Please rate:
print report bad tab
1 2 3 4 5
I want to post or [tab]
guest
You may want to rate the tab now too:
select rating
Please do not post tabs as comments. Select "correction" instead!