Oops, an error
Loading. Please wait.

Bruises Bass Tab

1,685 views 1 this week
no commentswrite comment
1 2 3 4 5
please rate
add to favorites
launch autoscroll
font size
0
reset
guitar tuner
Autoscroll
slow
fast
+/-
esc
set tempo
stop
Help us to improve Ultimate-Guitar.com Take our survey!
×
Artist: Band of Skulls

Album: Sweet Sour



All tabs by Pedro Zappa
-----------------------------------------------------------------------------
-----------------------------------------------------------------------------

2. Bruises


Verse 1

G||--------------------|--------------------|
D||--------------------|--------------------|
A||-7-7----7--7--------|-6-6----6--6--------|
E||--------------------|--------------------|
    i    i    i    i     i    i    i    i
G||--------------------|--------------------||  x2
D||--------------------|--------------------||
A||--------------------|--------------------||
E||-5-5----5--5--------|-5-5-------3----2---||
    i    i    i    i     i    i    i    i

Pre-Chorus 1

G||--------------------|--------------------||   x4
D||--------------------|--------------------||
A||-3-3--3-3--3-3--3-3-|-7-7--7-7--7-7--7-7-||
E||--------------------|--------------------||
    i    i    i    i     i    i    i    i

Chorus 1

G||--------------------|--------------------|
D||--------------------|--------------------|
A||--------------------|--------------------|
E||-00-----0--00-------|-00-----0--00-------|
    i    i    i    i     i    i    i    i
G||--------------------|--------------------||
D||--------------------|--------------------||
A||--------------------|--------------------||
E||-00-----0--00-------|-5-5--5-55---5--5-5-||
    i    i    i    i     i    i    i    i

Verse 2

G||--------------------|--------------------|
D||--------------------|--------------------|
A||-7-7----7--7--------|-6-6----6--6--------|
E||--------------------|--------------------|
    i    i    i    i     i    i    i    i
G||--------------------|--------------------||  x2
D||--------------------|--------------------||
A||--------------------|--------------------||
E||-5-5----5--5--------|-5-5-------3----2---||
    i    i    i    i     i    i    i    i

Pre-Chorus 2

G||--------------------|--------------------||   x4
D||--------------------|--------------------||
A||-3-3--3-3--3-3--3-3-|-7-7--7-7--7-7--7-7-||
E||--------------------|--------------------||
    i    i    i    i     i    i    i    i

Chorus 2

G||--------------------|--------------------|
D||--------------------|--------------------|
A||--------------------|--------------------|
E||-00-----0--00-------|-00-----0--00-------|
    i    i    i    i     i    i    i    i
G||--------------------|--------------------||   x2
D||--------------------|--------------------||
A||--------------------|--------------------||
E||-00-----0--00-------|-5-5--5-55---5--5-5-||
    i    i    i    i     i    i    i    i

Interlude

G||--------------------|--------------------|
D||--------------------|--------------------|
A||-7------------------|----------------7/--|
E||--------------------|--------------------|
    i    i    i    i     i    i    i    i
G||--------------------|----------------------||   x2
D||--------------------|----------------------||
A||-12-----------------|------------------12\-||
E||--------------------|----------------------||
    i    i    i    i     i    i    i    i 
G||--------------------|--------------------|
D||--------------------|--------------------|
A||-7-7--7-7--7-7--7-7-|-7-7--7-7--7-7--7-7-|
E||--------------------|--------------------|
    i    i    i    i     i    i    i    i
G||----------------------------|----------------------------||  
D||----------------------------|----------------------------||
A||-12-12--12-12--12-12--12-12-|-12-12--12-12--12-12--12-12-||
D||----------------------------|----------------------------||
    i      i      i      i       i      i      i      i
G||--------------------|--------------------|
D||--------------------|--------------------|
A||-7-7--7-7--7-7--7-7-|-7-7--7-7--7-7--7-7-|
E||--------------------|--------------------|
    i    i    i    i     i    i    i    i
G||----------------------------|--------------------||   
D||----------------------------|--------------------||
A||-12-12--12-12--12-12--12-12-|-12-12--12----------||
D||----------------------------|--------------------||
    i      i      i      i       i      i    i    i

Chorus 3

G||--------------------|--------------------|
D||--------------------|--------------------|
A||--------------------|--------------------|
E||-00-----0--00-------|-00-----0--00-------|
    i    i    i    i     i    i    i    i
G||--------------------|--------------------||   x2
D||--------------------|--------------------||
A||--------------------|--------------------||
E||-00-----0--00-------|-5-5--5-55---5--5-5-||
    i    i    i    i     i    i    i    i
G||--------------------|--------------------|
D||--------------------|--------------------|
A||-7------------------|--------------------|
E||--------------------|--------------------|
    i    i    i    i     i    i    i    i

Tab by Pedro Zappa
-----------------------------------------------------------------------------
-----------------------------------------------------------------------------
Suggest correction
Give kudos to tab author, rate the tab!
1 2 3 4 5
comments
print report bad tab
guest
You may want to rate the tab now too:
select rating
Please do not post tabs as comments. Select "correction" instead!