Oops, an error
Loading. Please wait.

Bruises Tab

5,256 views 15 this week
no commentswrite comment
1 2 3 4 5
x 8
add to favorites
launch autoscroll
font size
0
reset
how to read this tab
guitar tuner
Autoscroll
slow
fast
+/-
esc
set tempo
stop
Help us to improve Ultimate-Guitar.com Take our survey!
×
Author
Difficulty
Bruises - Band of Skulls

Bruises by Band of Skulls ear tabbed, listen to the song for strumming patterns and other things

Intro (palm muted)
E|---------------------------------------------------------------------------------------|
B|---------------------------------------------------------------------------------------|
G|---------------------------------------------------------------------------------------|
D|-----------------------------------------------16-------14-------12-------11--11-------|
A|----16-------14-------12-------11--11--------0--0--0--0--0--0--0--0--0--0--0---0-------|
E|--0--0--0--0--0--0--0--0--0--0--0---0--------------------------------------------------|

E|---------------------------------------------------------------------------------------|
B|---------------------------------------------------------------------------------------|
G|---------------------------------------------------------------------------------------|
D|--------------------------------------------------11--------9--------7-----6---6-------|
A|----11--------9--------7--------6---6--------0--0--0--0--0--0--0--0--0--0--0---0-------|
E|--0--0--0--0--0--0--0--0--0--0--0---0--------------------------------------------------|


Verse
E|--0--0--0--0-----------------------------------------------------|
B|--0--0--0--0----4--4--4--4----2--2--2--2----2--2--2--2-----------|
G|--1--1--1--1----4--4--4--4----2--2--2--2----2--2--2--2-----------| x2
D|--2--2--2--2----4--4--4--4----2--2--2--2----2--2--2--2-----------|
A|--2--2--2--2----2--2--2--2----0--0--0--0----0--0--0--0-----------|
E|--0--0--0--0-----------------------------------------------------|


Bridge
E|-------------------------------------------------------------------------------------|
B|-------------------------------------------------------------------------------------|
G|----2----2----2----2----2----2----2----2-----1----1----1----1----1----1----1----1----| x4
D|--------------------------------------------2----2----2----2----2----2----2----2-----|
A|--3----3----3----3----3----3----3----3-----------------------------------------------|
E|-------------------------------------------------------------------------------------|


Chorus
E|--0--0----0--0--0----0--0----0--0--0----0--0----0--0--0-------------------------------|
B|--0--0----0--0--0----0--0----0--0--0----0--0----0--0--0-------------------------------|
G|--2--1----2--2--1----2--1----2--2--1----2--1----2--2--1----7--7--7--7-----------------|
D|--2--2----2--2--2----2--2----2--2--2----2--2----2--2--2----7--7--7--7----7--7--7--7---|
A|--2--2----2--2--2----2--2----2--2--2----2--2----2--2--2----5--5--5--5----7--7--7--7---|
E|--0--0----0--0--0----0--0----0--0--0----0--0----0--0--0------------------5--5--5—-5---|




Verse
E|--0--0--0--0-----------------------------------------------------|
B|--0--0--0--0----4--4--4--4----2--2--2--2----2--2--2--2-----------|
G|--1--1--1--1----4--4--4--4----2--2--2--2----2--2--2--2-----------| x2
D|--2--2--2--2----4--4--4--4----2--2--2--2----2--2--2--2-----------|
A|--2--2--2--2----2--2--2--2----0--0--0--0----0--0--0--0-----------|
E|--0--0--0--0-----------------------------------------------------|


E|-------------------------------------------------------------------------------------|
B|-------------------------------------------------------------------------------------|
G|----2----2----2----2----2----2----2----2------1----1----1----1----1----1----1----1---| x5
D|---------------------------------------------2----2----2----2----2----2----2----2----|
A|--3----3----3----3----3----3----3----3-----------------------------------------------|
E|-------------------------------------------------------------------------------------|


Chorus
E|--0--0----0--0--0----0--0----0--0--0----0--0----0--0--0--------------------------------|
B|--0--0----0--0--0----0--0----0--0--0----0--0----0--0--0--------------------------------|
G|--2--1----2--2--1----2--1----2--2--1----2--1----2--2--1----7--7--7--7------------------|
D|--2--2----2--2--2----2--2----2--2--2----2--2----2--2--2----7--7--7--7----7--7--7--7----| x2
A|--2--2----2--2--2----2--2----2--2--2----2--2----2--2--2----5--5--5--5----7--7--7--7----|
E|--0--0----0--0--0----0--0----0--0--0----0--0----0--0--0------------------5--5--5--5----|


Intro
E|---------------------------------------------------------------------------------------|
B|---------------------------------------------------------------------------------------|
G|---------------------------------------------------------------------------------------|
D|-----------------------------------------------16-------14-------12-------11--11-------|
A|----16-------14-------12-------11--11--------0--0--0--0--0--0--0--0--0--0--0---0-------|
E|--0--0--0--0--0--0--0--0--0--0--0---0--------------------------------------------------|

E|---------------------------------------------------------------------------------------|
B|---------------------------------------------------------------------------------------|
G|---------------------------------------------------------------------------------------|
D|-----------------------------------------------11--------9--------7--------6---6-------| x2
A|----11--------9--------7--------6---6--------0--0--0--0--0--0--0--0--0--0--0---0-------|
E|--0--0--0--0--0--0--0--0--0--0--0---0--------------------------------------------------|

(after two times)
-------------------------------------------------|
-------------------------------------------------|
-------------------------------------------------|
--------11--------9--------7--------6------------|
------0--0--0--0--0--0--0--0--0--0--0------------|
-------------------------------------------------|


Outro
E|---------------------------------------------------------------------------------------|
B|---------------------------------------------------------------------------------------|
G|---------------------------------------------------------------------------------------|
D|-----------------------------------------------16-------14-------12-------11--11-------|
A|----16-------14-------12-------11--11--------0--0--0--0--0--0--0--0--0--0--0---0-------|
E|--0--0--0--0--0--0--0--0--0--0--0---0--------------------------------------------------|

E|---------------------------------------------------------------------------------------|
B|---------------------------------------------------------------------------------------|
G|---------------------------------------------------------------------------------------|
D|------------------------------------------------11-------9--------7--------6-----------|
A|----11--------9--------7--------6---6--------0--0--0--0--0--0--0--0--0--0--0-----------|
E|--0--0--0--0--0--0--0--0--0--0--0---0--------------------------------------------------|
Suggest correction
comments
print report bad tab
guest
You may want to rate the tab now too:
select rating
Wanna post a correction for this tab? Suggest correction