Oops, an error
Loading. Please wait.

Death By Diamonds And Pearls Bass Tab

version 1
version 1

Whole song

6,904 views 1 this week
2 commentsread comments
1 2 3 4 5
worth learning
x 5
add to favorites
launch autoscroll
font size
0
reset
guitar tuner
Tab Pro tools
  • play this tab
  • loop segment
  • change instrument
  • show fretboard
  • metronome
×
Best way to learn
"Death By Diamonds And Pearls"
Autoscroll
slow
fast
+/-
esc
set tempo
stop
---------------------------------------------------------------------------------
Death by Diamonds and Pearls
Band of Skulls

Tuning: Standard

| /  slide up
| \  slide down


G|-------------------------------------------------------------------------|
D|----00------------00------------------00-----------------00--------------|
A|-22---00-00----22---00-00-22--/7775-----00-00-22-02220-----00-00-00-00---|
E|-------------------------------------7------------------0----------------|

G|------------------------|
D|----------0-------------| x2
A|-2-2-22-0-------------2-|
E|------------33333-332---|

G|-------------------------------------------------------------------------|
D|----00------------00------------------00-----------------00--------------|
A|-22---00-00----22---00----22--/7775-----00-00-22-02220-----00-00-00-00---|
E|-------------------------------------7------------------0----------------|

G|------------------------|
D|----------0-------------| x4
A|-2-2-22-0-------------2-|
E|------------33333-332---|

This part has guitar only...then

G|---------------------------------------------------------|
D|----------------------000000-----------------------------| x2
A|-2-2-222-2-2-222-22-00---------------------------222222--|
E|----------------------------3-3-333-3-3-333-33-22--------|

G|------------------------|
D|----------0-------------| x2
A|-2-2-22-0-------------2-|
E|------------33333-332---|



comments
print report bad tab
2 comments total.
0 reply
shayemarshall wrote on May 11 2010, 01:19 pm

The only thing I see wrong is...

G|-------------------------------------------------------------------------|
D|----00------------00------------------00-----------------00--------------|
A|-22---00-00----22---00-00-22--/7775-----00-00-22-02220-----00-00-00-00---|
E|-------------------------------------7------------------0*---------------|

It should be 2. Other than that... I think it's a good tab.

0 reply
shayemarshall wrote on May 17 2010, 11:46 am

Actually, It sounds a lot better if you play it all on E.

I want to post or [tab]
guest
You may want to rate the tab now too:
select rating
Please do not post tabs as comments. Select "correction" instead!