Oops, an error
Loading. Please wait.

Death By Diamonds And Pearls Tab

version 2
version 2

Whole song

39,533 views 42 this week
1 commentread comment
1 2 3 4 5
x 24
add to favorites
launch autoscroll
font size
0
reset
how to read this tab
guitar tuner
Autoscroll
slow
fast
+/-
esc
set tempo
stop
Help us to improve Ultimate-Guitar.com Take our survey!
×
Difficulty
novice
[Intro]
(Russell uses slap delay on this and so do I. If you don't have it just strum it 
twice. Also lightly palm mute it.)
e|-----------------22-------------------|
B|---44--44--44-22-33----------------44-|    (x2)
G|---44--44--44-22-22--44--44--44-33-44-|   
D|---44--44--44-22-----55--55--55-44-44-|
A|---------------------55--55--55-44----|
E|--------------------------------------|
     
e|------|
B|--44--|
G|--44--|
D|--44--|
A|------|
E|------|

[Verse 1]
1.She grew up in a nice neighbour hood.
2.Cos she's just the sum of her influence. 
3.By the cracked windscreen on her car.

[Verse 2]
1.You've got your figure all nice.
2.You got 25 grand on the bubble.
3.I might be a fan of your insolence.

e|--------------------------------------22--|
B|--------------------------------------33--|
G|--------------------------------------22--|
D|------------------------------------------|
A|------------------------------------------|
E|------------------------------------------|

[Verse 1]
1.But it didn't do her no good.
2.Hell, I can't tell you the difference.
3.Something is telling me you don't know how lucky you are.

[Verse 2]
1.But your heart stays colder than ice. 
2.And you're the one telling me that you don't think you're in trouble.
3.But that don't make you the innocent.
e|----------------------------------|
B|-----------------------------44---|
G|-----------11-------11-------44---|
D|-----------22-------22-------44---|
A|-----------22-------22------------|
E|----------------------------------|

[Pre-Chorus]
You're just like the rest of those girls.
e|----------------------------------22--|
B|----------------------------------33--|
G|----------------------------------22--|
D|--------------------------------------|
A|--------------------------------------|
E|--------------------------------------|

They're all death by diamonds and death by diamonds and
e|------------------------------------------------------|
B|------------------------------------------------------|
G|-----------11--------------------11-------------------|
D|-----------22--------------------22-------------------|
A|-----------22--------------------22-------------------|
E|------------------------------------------------------|

Death by diamonds and death by diamonds and pearls.
e|------------------------------------------------------|
B|------------------------------------------------------|
G|--11--------------------------------------------------|
D|--22--------------------------------------------------|
A|--22--------------------------------------------------|
E|------------------------------------------------------|

[Chorus]
               pm.....
e|------------2---------------|
B|---4-4-44-2-3------------4--|
G|---4-4-44-2-2--44444-4-3-4--|   (x2)
D|---4-4-44-2----55555-5-4-4--|
A|---------------55555-5-4----|
E|----------------------------|

[Verse]
e|----------------------------------|
B|-----------------------------44---|
G|-----------11-------11-------44---|
D|-----------22-------22-------44---|
A|-----------22-------22------------|
E|----------------------------------|

[Pre-Chorus]
You're just like the rest of those girls.
e|----------------------------------22--|
B|----------------------------------33--|
G|----------------------------------22--|
D|--------------------------------------|
A|--------------------------------------|
E|--------------------------------------|

They're all death by diamonds and death by diamonds and
e|------------------------------------------------------|
B|------------------------------------------------------|
G|-----------11--------------------11-------------------|
D|-----------22--------------------22-------------------|
A|-----------22--------------------22-------------------|
E|------------------------------------------------------|

Death by diamonds and death by diamonds and pearls.
e|------------------------------------------------------|
B|------------------------------------------------------|
G|--11--------------------------------------------------|
D|--22--------------------------------------------------|
A|--22--------------------------------------------------|
E|------------------------------------------------------|

[Chorus]
               pm.....
e|------------2---------------|
B|---4-4-44-2-3------------4--|
G|---4-4-44-2-2--44444-4-3-4--|   (x2)
D|---4-4-44-2----55555-5-4-4--|
A|---------------55555-5-4----|
E|----------------------------|

[Instrumental]
(Russell uses slap delay on this and so do I. If you don't have it just strum it 
twice. Also lightly palm mute it.)
e|-----------------22-------------------|
B|---44--44--44-22-33----------------44-|    (x2)
G|---44--44--44-22-22--44--44--44-33-44-|   
D|---44--44--44-22-----55--55--55-44-44-|
A|---------------------55--55--55-44----|
E|--------------------------------------|
     
e|------|
B|--44--|
G|--44--|
D|--44--|
A|------|
E|------|

[Chorus]
e|------------2---------------|
B|---4-4-44-2-3------------4--|
G|---4-4-44-2-2--44444-4-3-4--|   (x2)
D|---4-4-44-2----55555-5-4-4--|
A|---------------55555-5-4----|
E|----------------------------|

[Solo]
e|---------------------------------------------------------|
B|---17b-17b-17b-17bv-17--15v----17br-15-17br-17br-15------|
G|----------------------16---------------------------16----|
D|---------------------------------------------------------|
A|---------------------------------------------------------|
E|---------------------------------------------------------|

b|--------------------------------------------------------------------|
B|--17b-17b-17b-17b-17-15---15v-15p14p12-14p12p10-12p10p8-10p8p7h8p7--|
G|------------------------16------------------------------------------|
D|--------------------------------------------------------------------|
A|--------------------------------------------------------------------|
E|--------------------------------------------------------------------|

e|--------------------------------------------------------------------|
B|--------------------------------------------------------------------|
G|--4s6-6h7-7s9-9s11-11s9-9s7-7s9-9s11-11bv--9-7p6h7-6s4-4s6-6s7-7s9--|
D|--------------------------------------------------------------------|
A|--------------------------------------------------------------------|
E|--------------------------------------------------------------------|

e|------------------------------|
B|---------------------15b-12v--|
G|--9s11-11p9h11p9h11b----------|
D|------------------------------|
A|------------------------------|
E|------------------------------|

[Chorus]
               pm.....
e|------------2---------------|
B|---4-4-44-2-3------------4--|
G|---4-4-44-2-2--44444-4-3-4--|   (x2)
D|---4-4-44-2----55555-5-4-4--|
A|---------------55555-5-4----|
E|----------------------------|


************************************

| b   Bend
| br  Bend release
| h   Hammer-on
| p   Pull-off

************************************
Suggest correction
comments
print report bad tab
1 comment total.
+4 reply
Just2Rusty 20 Oct 27, 2013 08:52 PM

It took me a second to realise the first chord didn't start at fret 44.

guest
You may want to rate the tab now too:
select rating
Wanna post a correction for this tab? Suggest correction