Oops, an error
Loading. Please wait.

Dull Gold Heart Tab

1,453 views 18 this week
no commentswrite comment
1 2 3 4 5
excellent!
x 4
add to favorites
launch autoscroll
font size
0
reset
how to read this tab
guitar tuner
Tab Pro tools
  • play this tab
  • loop segment
  • change instrument
  • show fretboard
  • metronome
×
Best way to learn
"Dull Gold Heart"
Autoscroll
slow
fast
+/-
esc
set tempo
stop
Contributor
Difficulty
Tuning
novice
D A D G B E
Intro Chorus:
                          Shot  in    the   da----rk      I       wait    for
e|---------------------------------------------------------------------------------|
B|---------------------------------------------------------------------------------|
G|---------------------------------------------------------------------------------|
D|---------------------------------------------------------------------------------|
A|--9~9~--9~9~--9~9~--9~9~--9~9~--9~9~--9~9~--9~9~--10~10~--10~10~--10~10~--10~10~-|
D|0~----0~----0~----0~----0~----0~----0~----0~----0~------0~------0~------0~-------|

  your  dull  gold  hea---rt      I       wait...
e|--------------------------------------------------------|
B|--------------------------------------------------------|
G|--------------------------------------------------------|
D|--------------------------------------------------------|
A|--9~9~--9~9~--9~9~--9~9~--10~10~--10~10~----------------|
D|0~----0~----0~----0~----0~------0~------0~--------------|

Build:
  (start out just hitting the palm-muted A string and gradually progress
to strumming all five strings open)
e|0
B|1
G|0
D|0
A|3
D|-

Verse:
  (let that chord ring while quickly turning down the volume on your guitar, then mute
all strings and turn your volume back up by the time the vocals come in so you can play this)

                            it                              to
  Most                    give   away                     lay   re-
e|---------------------------------------------------------------3-|
B|7~-----------------------------88~-----------------------------0-|
G|7~-----------------------------55~-----------------------------0-|
D|7~-----------------------------55~-----------------------------0-|
A|5~--55-5~---5~------55-5~---5~-55~--55-5~---5~------55-5~---5~-5-|
D|0~------0-0~----0~------0-0~----0~------0-0~----0~------0-0~---0-|

                            them-
  -st                     save  selves
e|3~--------------------------------------------------------------|
B|0~-----------------------------77~------------------------------|
G|0~-----------------------------77~------------------------------|
D|0~-----------------------------77~------------------------------|
A|5~--55-5~---5~------55-5~---5~-55~--55-5~---5~------55-5~---5~--|
D|0~------0-0~----0~------0-0~----0~------0-0~----0~------0-0~----|

                           -mise  now                       your
  Please                  pro-  me                        on    li-
e|---------------------------------------------------------------3-|
B|7~-----------------------------88~-----------------------------0-|
G|7~-----------------------------55~-----------------------------0-|
D|7~-----------------------------55~-----------------------------0-|
A|5~--55-5~---5~------55-5~---5~-55~--55-5~---5~------55-5~---5~-5-|
D|0~------0-0~----0~------0-0~----0~------0-0~----0~------0-0~---0-|

                                                  won't
  -fe                     you won't            you
e|3~--------------------------------------------------------------|
B|0~-----------------------------77~--------------7\5-------------|
G|0~-----------------------------77~--------------------------0~--|
D|0~-----------------------------77~--------------------------0~--|
A|5~--55-5~---5~------55-5~---5~-55~--55-5~---5~------55-5~---5~--|
D|0~------0-0~----0~------0-0~----0~------0-0~------------0-0~----|

Bridge:
            got                           for
          I've  all       you've  wai---ted
e|----------------------------------------------------------------|
B|0~---------------------------000--------------------------------|
G|5~------4-5~---------------555557~------------------------------|
D|5~------------5~---------55555557~------------------------------|
A|3~-----------------------33333335~--55-5~---5~------55-5~---5~--|
D|--------------------------------0~------0-0~----0~------0-0~----|

            got
          I've  all you need...
e|--------------------------------|
B|0~------------------------------|
G|5~------4-5~--------------------|
D|5~------------5~----------------|
A|3~------------------------------|
D|--------------------------------|

Chorus:
  (the "v" in the tab indicates bending those strings up and down rapidly creating a
vibrato effect)

e|-----------------------------------------------------------------|
B|-----------------------------------------------------------------|
G|--11v11v--11v11v--11v11v--11v11v--12v12v--12v12v--12v12v--12v12v-|
D|--x--x----x--x----x--x----x--x----x--x----x--x----x--x----x--x---|
A|--9vv9vv--9vv9vv--9vv9vv--9vv9vv--10v10v--10v10v--10v10v--10v10v-|
D|0-------0-------0-------0-------0-------0-------0-------0--------|

  Shot    in      the     da------rk      I       wait    for
e|-----------------------------------------------------------------|
B|-----------------------------------------------------------------|
G|--11v11v--11v11v--11v11v--11v11v--12v12v--12v12v--12v12v--12v12v-|
D|--x--x----x--x----x--x----x--x----x--x----x--x----x--x----x--x---|
A|--9vv9vv--9vv9vv--9vv9vv--9vv9vv--10v10v--10v10v--10v10v--10v10v-|
D|0-------0-------0-------0-------0-------0-------0-------0--------|

  your    dull    gold    hea-----rt      I       wait...
e|------------------------------------------------------------------------------|
B|------------------------------------------------------------------------------|
G|--11v11v--11v11v--11v11v--11v11v--12v12v--12v12v--12v12v----------------------|
D|--x--x----x--x----x--x----x--x----x--x----x--x----x--x------------------------|
A|--9vv9vv--9vv9vv--9vv9vv--9vv9vv--10v10v--10v10v--10v10v--12(14)------(14)12--|
D|0-------0-------0-------0-------0-------0-------0-------0---------------------|

Verse:
                               your                         me
                             on                           let
  You                     you    own                     you    do-
e|---------------------------------------------------------------3-|
B|7~-----------------------------88~-----------------------------0-|
G|7~-----------------------------55~-----------------------------0-|
D|7~-----------------------------55~-----------------------------0-|
A|5~--55-5~---5~------55-5~---5~-55~--55-5~---5~------55-5~---5~-5-|
D|0~------0-0~----0~------0-0~----0~------0-0~----0~------0-0~---0-|

                            me
                          let
  -wn                    you    down
e|3~-------------------------------------------------------------|
B|0~-----------------------------77~--------------7\5~-----------|
G|0~-----------------------------77~-----------------------------|
D|0~-----------------------------77~-----------------------------|
A|5~--55-5~---5~------55-5~---5~-55~--55-5~---5~------55-5~---5~-|
D|0~------0-0~----0~------0-0~----0~------0-0~------------0-0~---|

                                 my                           red
                                in                          blood
    Ne----ver               stand   way                    your   hea-
e|-----------------------------------------------------------------3-|
B|8/7~-----------------------------88~-----------------------------0-|
G|---------------------------------55~-----------------------------0-|
D|---------------------------------55~-----------------------------0-|
A|------55-5~---5~------55-5~---5~-55~--55-5~---5~------55-5~---5~-5-|
D|----------0-0~----0~------0-0~----0~------0-0~----0~------0-0~---0-|

                              stay               stay
  -rt                     will                  will
e|3~--------------------------------------------------------------|
B|0~-----------------------------77~-------------7\5~-------------|
G|0~-----------------------------77~------------------------------|
D|0~-----------------------------77~------------------------------|
A|5~--55-5~---5~------55-5~---5~-55~--55-5~---5~------55-5~---5~--|
D|0~------0-0~----0~------0-0~----0~------0-0~------------0-0~----|

Bridge:
            got                           for
          I've  all       you've  wai---ted
e|----------------------------------------------------------------|
B|0~---------------------------000--------------------------------|
G|5~------4-5~---------------555557~------------------------------|
D|5~------------5~---------55555557~------------------------------|
A|3~-----------------------33333335~--55-5~---5~------55-5~---5~--|
D|--------------------------------0~------0-0~----0~------0-0~----|

            got
          I've  all...    you need
e|---------------------------------|
B|0~-------------------------------|
G|5~------4-5~---------------------|
D|5~------------5~-----------------|
A|3~-------------------------------|
D|----------------------0///////12-|

Heavy Verse:

e|----------------------------------------------------------------|
B|----------------------------------------------------------------|
G|----------------------------0~--5~----------9---5~--------------|
D|----------------------------0~--5~----------x---5~--------------|
A|----55-5----5\0-----55-5----5~--5~--55-5----7---5~--55-5----5~--|
D|0~------0-0~----0~------0-0~----0~------0-0~----0~------0-0~----|

(start bending the 14 and 17 at the asterisk until both are bent a full step up)
                                                                          *
e|------------------------------------------------------------------------------------------|
B|0~------------------------------77777788101010101010121213131315151717171717171717171717--|
G|4~------------------------------xxxxxxxxx-x-x-x-x-x-x-x-x-x-x-x-x-x-x-x-x-x-x-x-x-x-x-x---|
D|5~------------------------------444444557-7-7-7-7-7-9-9-10101012121414141414141414141414--|
A|5~--55-5~-----------55-5~---5~------------------------------------------------------------|
D|0~------0-0~2b~-0~------0-0~--------------------------------------------------------------|

Chorus:

e|-----------------------------------------------------------------|
B|-----------------------------------------------------------------|
G|--11v11v--11v11v--11v11v--11v11v--12v12v--12v12v--12v12v--12v12v-|
D|--x--x----x--x----x--x----x--x----x--x----x--x----x--x----x--x---|
A|--9vv9vv--9vv9vv--9vv9vv--9vv9vv--10v10v--10v10v--10v10v--10v10v-|
D|0-------0-------0-------0-------0-------0-------0-------0--------|

e|-----------------------------------------------------------------|
B|-----------------------------------------------------------------|
G|--11v11v--11v11v--11v11v--11v11v--12v12v--12v12v--12v12v--12v12v-|
D|--x--x----x--x----x--x----x--x----x--x----x--x----x--x----x--x---|
A|--9vv9vv--9vv9vv--9vv9vv--9vv9vv--10v10v--10v10v--10v10v--10v10v-|
D|0-------0-------0-------0-------0-------0-------0-------0--------|

Outro Chorus:

  Shot  in    the   da----rk      I       wait    for
e|---------------------------------------------------------|
B|---------------------------------------------------------|
G|---------------------------------------------------------|
D|---------------------------------------------------------|
A|--9~9~--9~9~--9~9~--9~9~--10~10~--10~10~--10~10~--10~10~-|
D|0~----0~----0~----0~----0~------0~------0~------0~-------|

  your  dull  gold  hea---rt      I       wait...
e|--------------------------------------------------------|
B|--------------------------------------------------------|
G|--------------------------------------------------------|
D|--------------------------------------------------------|
A|--9~9~--9~9~--9~9~--9~9~--10~10~--10~10~----------------|
D|0~----0~----0~----0~----0~------0~------0~--------------|
comments
print report bad tab
I want to post or [tab]
guest
You may want to rate the tab now too:
select rating
Please do not post tabs as comments. Select "correction" instead!