Oops, an error
Loading. Please wait.

Embers tab

250 views 1 this week
2 commentsread comments
1 2 3 4 5
2 more votes to show rating
add to favorites
×
Save as Personal and add changes to this tab that will be seen only by you. Learn more ›
×
You can save this tab as Personal to edit and correct it or add notes. All changes will be seen only by you. Learn more »
launch autoscroll
font size
0
reset
how to read this tab
guitar tuner
edit
Autoscroll
slow
fast
+/-
esc
set tempo
stop
Author
Difficulty
Band of Skulls - Embers (By Default)(2016)

This is my first written tab, so don't be too mean!
Any questions? Email: kizzyandnils.ce@gmail.com

All Copyright to the respective owners

Chords Used:
G5 E5 B5 F#5 A5

[Chords]
   G5     E5       B5       A5      F#5
e|-3-----0--7-----2--7-----0--5-----2---|
B|-3-----0--9-----4--7-----2--5-----2---|
G|-3-----0--9-----4--7-----2--5-----2---|
D|-5-----2--9-----4--5-----2--7-----4---|
A|-5-----2--7-----2--5-----0--7-----4---|
E|-3-----0--7-----2--7-----0--5-----2---|

[Intro]
e|--------------------------------------|
B|---7--5----------------7--5-----------|
G|---------7------7------------7--4~----|
D|------------8~------------------------|
A|--------------------------------------|
E|--------------------------------------|(x3)


e|--------------------------7------------|
B|---7--5----------------7-----7--5------|
G|---------7------7----------------------|
D|------------8~-------------------------|
A|---------------------------------------|
E|---------------------------------------|

[Verse]
G5   E5                          B5          F#5
     Take me to the place that we met, babe,
G5            E5                B5      F#5
     We could even go back some more
G5           E5              B5          F#5
     Not a single thing to regret, babe,
            G5   E5    B5  F#5
        That you are more, yeah

[Chorus]
G5                   F#5
     It's not what you waited for
      B5
     Or hated for
      A5
     Awaited through the night
G5         F#5            B5
     But I still love you, baby

[Verse]
G5       E5                 B5           F#5
     Now, I don't even want to remember,
G5         E5             B5          F#5
     But I better do unless you forget
G5         E5               B5       F#5
     As the fire returns to an ember
     G5       E5    B5     F#5
     That you won't get,  yeah

[Chorus]
G5                   F#5
     It's not what you waited for
         B5
     Or hated for
      A5
     Awaited through the night
G5               F#5
     All that you meant to me
       B5
     Was misery
        A5
     I wasted half of my life
G5                 F#5
     Take all your trophies down
          B5              A5
     Take off your crown
G5           F#5     B5
     I still love you, baby

[Bridge]
e|--------------------------------------|
B|---7--5----------------7--5-----------|
G|---------7------7------------7--4~----|
D|------------8~------------------------|
A|--------------------------------------|
E|--------------------------------------|(x3)


e|--------------------------7------------|
B|---7--5----------------7-----7--5------|
G|---------7------7----------------------|
D|------------8~-------------------------|
A|---------------------------------------|
E|---------------------------------------|

[Solo]
e|----------------------------------------------------------|
B|-8-8-8-8-7-7-7-7-7-7-7-7-7-7-7-7-8-8-8-8-7-7-7-7----------|
G|-------------------------------------------------9-7-6~~--|
D|----------------------------------------------------------|
A|----------------------------------------------------------|
E|----------------------------------------------------------|(x2)

e|--------------------------------------------|
B|--------------------------------------------|
G|-6-7-6-4~---6-7-6-4~---6-7-6-4~---6-7-6-----|
D|----------------------------------------8~--|
A|--------------------------------------------|
E|--------------------------------------------|

e|--------------------------------------|
B|-7-5----------------------------------|
G|-----7-6--7-4~-------7-6--7-4--6-3~---|   
D|--------------------------------------|
A|--------------------------------------|
E|--------------------------------------|(x2)

e|-------------------------------------|
B|-------------------------------------|
G|-12-11--9-7--6-----------------------|
D|---------------9~--9-8---9~--11~--9~-|
A|-------------------------------------|
E|-------------------------------------|

Notes:
The chord during the intro and bridge sections is the B5
The chords over the solo will be the same as the chorus


************************************

| ~  Vibrato

************************************

            
            
Suggest correction
Creating personal tab
Creating personal tab
You can edit any tab online and save it as your Personal.

You can edit, replace or remove any tab part or add personal notes – all changes will be seen only by you.

Personal tabs can be accessed anytime from any device, even offline.
Learn more »
Give kudos to tab author, rate the tab!
1 2 3 4 5
comments
print report bad tab
2 comments total.
0 reply
coco-bbe 80 Dec 17, 2016 12:25 PM, edited at 05:59 pm

e|--------------------------------------|
B|-6-4----------------------------------|
G|-----7-6--7-4~-------7-6--7-4--6-3~---|
D|--------------------------------------|
A|--------------------------------------|
E|--------------------------------------|(x2)

Can also be played up 1 octave, similar to the rocrod like this :)

e|-13-11--------------------------------------------|
B|------14-13-14-11~--14-13-14-11-13-10~|
G|-----------------------------------------------------|
D|-----------------------------------------------------|
A|-----------------------------------------------------|
E|-----------------------------------------------------|

0 reply
coco-bbe 80 Dec 17, 2016 01:14 PM

e|-14-12---------------------------------| ^^^^^
B|-------15-13-15-12~--15-14-15-12-14-11~|
G|---------------------------------------|
D|---------------------------------------|
A|---------------------------------------|
E|---------------------------------------|

guest
You may want to rate the tab now too:
select rating
Wanna post a correction for this tab? Suggest correction