Oops, an error
Loading. Please wait.

Fires Bass Tab

2,178 views 3 this week
2 commentsread comments
1 2 3 4 5
please rate
add to favorites
launch autoscroll
font size
0
reset
guitar tuner
Autoscroll
slow
fast
+/-
esc
set tempo
stop
Help us to improve Ultimate-Guitar.com Take our survey!
×
Author
-------------------------------------------------------------------------------
			     Fires - Band Of Skulls
-------------------------------------------------------------------------------

Tabbed By : Robby Farrand
e-mail: farrandr@ymail.com

Tuning: Standard

G|------------|
D|------------|
A|------------|x however many
E|--7-5-5-5---|

G|-------------------------------|
D|-------------------------------|
A|-----------------7-------------|
E|---5-5-5-5-5-7-----------------|

G|-------------------------------|
D|-------------------------------|
A|-----------------7---5---------|
E|---5-5-5-5-5-7-----------------|

Email me if you need help
Suggest correction
Give kudos to tab author, rate the tab!
1 2 3 4 5
comments
print report bad tab
2 comments total.
0 reply
rocket7 72 wrote on March 17 2010, 09:30 pm


G|-------------------------------------------|
D|-------------------------------------------|
A|-----------------------------7-7-7-7-7-9---|
E|---5-5-5-5-5-7--7-7-7-7-7-9----------------|

all the same patten even when this is the second time around
G|-------------------------------|
D|-------------------------------|
A|--5-5-5-5-5-7------------------|
E|-------------------------------|

+1 reply
mrweektor 10 wrote on January 5 2016, 07:49 pm

very incomplete. you only have the A riff but you don't at all go to E. You show 3 almost similar riffs, but don't say what parts they are played with.

guest
You may want to rate the tab now too:
select rating
Please do not post tabs as comments. Select "correction" instead!