Oops, an error
Loading. Please wait.

Himalayan Tab

version 1
version 1

Whole song

Interactive

6,361 views 18 this week
3 commentsread comments
1 2 3 4 5
accurate
x 6
add to favorites
launch autoscroll
font size
0
reset
how to read this tab
guitar tuner
Tab Pro tools
  • play this tab
  • loop segment
  • change instrument
  • show fretboard
  • metronome
×
Best way to learn
"Himalayan"
Autoscroll
slow
fast
+/-
esc
set tempo
stop
Contributor
Difficulty
intermediate
Tabbed by: Eric

Tuning: Standard

Intro
e|--7-7-7-7--7-7-7-7--10-10-10-10--9--9--9--9--9--9--9--9---|
B|--8-8-8-8--8-8-8-8--9--9--9--9---10-10-10-10-10-10-10-10--|
G|--9-9-9-9--9-9-9-9--9--9--9--9---9--9--9--9--9--9--9--9---|  x2
D|--9-9-9-9--9-9-9-9----------------------------------------|
A|----------------------------------------------------------|
E|----------------------------------------------------------|

(0:10)
e|--7-7-7-7--x-x-x--7-7-7-7--x-x-x--10-10-10-10--x-x-x--9--9--9--9--9--9--9--9---|
B|--8-8-8-8--x-x-x--8-8-8-8--x-x-x--9--9--9--9---x-x-x--10-10-10-10-10-10-10-10--|
G|--9-9-9-9--x-x-x--9-9-9-9--x-x-x--9--9--9--9---x-x-x--9--9--9--9--9--9--9--9---|  x2
D|--9-9-9-9--x-x-x--9-9-9-9--x-x-x---------------x-x-x---------------------------|
A|-----------x-x-x-------------------------------x-x-x---------------------------|
E|-----------x-x-x-------------------------------x-x-x---------------------------|

Verse (0:20) - play first part palm-muted 6 times
e|---------|-------|
B|---------|-------|
G|---------|--7----|  x4
D|--2-2-2--|--7-7--|
A|--2-2-2--|--5-7--|
E|--0-0-0--|----5--|
  

Chorus (0:41)
Guitar 1 plays intro chords
Guitar 2
e|-----------------------------|
B|-----------------------------|
G|-----------------------------| x4 (on last time, don't play the final note)
D|----5-------------5----------|
A|------7-5-7-7\------7-5-7-7--|
E|--0-------------0------------|

Verse (1:02)

Chorus (1:24)
Guitar 1 plays intro chords
Guitar 2
e|------------------------------------------------------------|
B|------------------------------------------------------------|
G|------------------------------------------------------------|  
D|----5-------------5------------5-------------5--------77-5--|
A|------7-5-7-7\------7-5-7-7------7-5-7-7\------7-5-7--------|
E|--0-------------0------------0-------------0----------------|

e|------------------------------------------------------------|
B|------------------------------------------------------------|
G|------------------------------------------------------------|  
D|----5-------------5------------5-------------5--------------|
A|------7-5-7-7\------7-5-7-7------7-5-7-7\------7-5-7--------|
E|--0-------------0------------0-------------0----------------|

Bridge (1:45)
e|--7~----5~----3~----3~----3--3--7~----5~----3~----3~---------|
B|--8~----8~----3~----5~----3--5--8~----8~----3~----5~---------|
G|-------------------------------------------------------------|
D|-------------------------------------------------------------|
A|--------------------------------------------------------5b7--|
E|-------------------------------------------------------------|

Solo (2:04)
e|--15-12----12----15-15-14-12-15v----12-10-12-10---------17b18r17-15--17-17-17-15--|
B|--------15---------------------------------------12-10----------------------------|
G|----------------------------------------------------------------------------------|
D|----------------------------------------------------------------------------------|
A|----------------------------------------------------------------------------------|
E|----------------------------------------------------------------------------------|

(2:19)
e|--10-10-10-10--9--9--9--9-----------------------|
B|--9--9--9--9---10-10-10-10--12v--14v--15v--17v--|
G|--9--9--9--9---9--9--9--9-----------------------|
D|------------------------------------------------|
A|------------------------------------------------|
E|------------------------------------------------|

Final Chorus (2:28)
Guitar 1 plays intro chords
Guitar 2 riff below x2
e|----------------------------------------------------------------|
B|----------------------------------------------------------------|
G|----------------------------------------------------------------|
D|----5-------------5------------5-------------5--------77-5------|
A|------7-5-7-7\------7-5-7-7------7-5-7-7\------7-5-7------------|
E|--0-------------0------------0-------------0--------------------|

(2:38 and 2:59)
e|----------------------------------------------------------------|
B|----------------------------------------------------------------|
G|----------------------------------------------------------------|
D|----5-------------5------------5-------------5-----5-----5------|
A|------7-5-7-7\------7-5-7-7------7-5-7-7\------7-5---7-5---7-5--|
E|--0-------------0------------0-------------0--------------------|

End on E
comments
print report bad tab
3 comments total.
0 reply
x_hud wrote on June 27 2014, 04:41 am

I believe the intro goes like this



e|--7-7-7-7--7-7-7-7--10-10-10-10--9--9--9--9--9--9--9--9---|
B|--8-8-8-8--8-8-8-8--8--8--8--8---8--8--8--8--8--8--8--8---|
G|--9-9-9-9--9-9-9-9--9--9--9--9---9--9--9--9--9--9--9--9---|
D|--9-9-9-9--9-9-9-9--9--9--9--9---9--9--9--9--9--9--9--9---|
A|----------------------------------------------------------|
E|----------------------------------------------------------|

+3 reply
jb7585 wrote on November 13 2014, 04:24 am

e|--7-7-7-7--x-x-x--7-7-7-7--x-x-x--10-10-10-10--x-x-x--9--9--9--9--9--9--9--9---|
B|--8-8-8-8--x-x-x--8-8-8-8--x-x-x--8--8--8--8---x-x-x--8--8--8--8--8--8--8--8---|
G|--9-9-9-9--x-x-x--9-9-9-9--x-x-x--9--9--9--9---x-x-x--9--9--9--9--9--9--9--9---| x2
D|--9-9-9-9--x-x-x--9-9-9-9--x-x-x--7--7--7--7---x-x-x--7--7--7--7--7--7--7--7---|
A|-----------x-x-x-------------------------------x-x-x---------------------------|
E|-----------x-x-x-------------------------------x-x-x---------------------------|

I think this is correct.

Russell goes back to playing this over the chorus too thanks

0 reply
lukeplummy wrote on April 2 2015, 08:08 am

I think the solo is played an octave down from what is tabbed, seeing then play live and listening to the track, it just sounds too high.

I want to post or [tab]
guest
You may want to rate the tab now too:
select rating
Please do not post tabs as comments. Select "correction" instead!