Oops, an error
Loading. Please wait.

Himalayan Tab

version 1
version 1

Whole song

Interactive

7,348 views 21 this week
3 commentsread comments
1 2 3 4 5
x 6
add to favorites
launch autoscroll
font size
0
reset
how to read this tab
guitar tuner
Autoscroll
slow
fast
+/-
esc
set tempo
stop
Help us to improve Ultimate-Guitar.com Take our survey!
×
Author
Difficulty
Tuning
intermediate
E A D G B E
Tabbed by: Eric

Tuning: Standard

Intro

e|--7-7-7-7--7-7-7-7--10-10-10-10--9--9--9--9--9--9--9--9---|
B|--8-8-8-8--8-8-8-8--8--8--8--8---8--8--8--8--8--8--8--8---|
G|--9-9-9-9--9-9-9-9--9--9--9--9---9--9--9--9--9--9--9--9---| x2
D|--9-9-9-9--9-9-9-9--9--9--9--9---9--9--9--9--9--9--9--9---|
A|----------------------------------------------------------|
E|----------------------------------------------------------|

(0:10)
e|--7-7-7-7--x-x-x--7-7-7-7--x-x-x--10-10-10-10--x-x-x--9--9--9--9--9--9--9--9---|
B|--8-8-8-8--x-x-x--8-8-8-8--x-x-x--8--8--8--8---x-x-x--8--8--8--8--8--8--8--8---|
G|--9-9-9-9--x-x-x--9-9-9-9--x-x-x--9--9--9--9---x-x-x--9--9--9--9--9--9--9--9---| x2
D|--9-9-9-9--x-x-x--9-9-9-9--x-x-x--7--7--7--7---x-x-x--7--7--7--7--7--7--7--7---|
A|-----------x-x-x-------------------------------x-x-x---------------------------|
E|-----------x-x-x-------------------------------x-x-x---------------------------|

Concluding chord very fast srummed (listen to record)

e|--12--|
B|--12--|
G|--12--|
D|--10--|
A|------|
E|------|

Verse (0:20) - play first part palm-muted 6 times
e|---------|-------|
B|---------|-------|
G|---------|--7----|  x4
D|--2-2-2--|--7-7--|
A|--2-2-2--|--5-7--|
E|--0-0-0--|----5--|
  

Chorus (0:41)
Guitar 1 plays intro chords
Guitar 2
e|-----------------------------|
B|-----------------------------|
G|-----------------------------| x4 (on last time, don't play the final note)
D|----5-------------5----------|
A|------7-5-7-7\------7-5-7-7--|
E|--0-------------0------------|

Verse (1:02)

Chorus (1:24)
Guitar 1 plays intro chords
Guitar 2
e|------------------------------------------------------------|
B|------------------------------------------------------------|
G|------------------------------------------------------------|  
D|----5-------------5------------5-------------5--------77-5--|
A|------7-5-7-7\------7-5-7-7------7-5-7-7\------7-5-7--------|
E|--0-------------0------------0-------------0----------------|

e|------------------------------------------------------------|
B|------------------------------------------------------------|
G|------------------------------------------------------------|  
D|----5-------------5------------5-------------5--------------|
A|------7-5-7-7\------7-5-7-7------7-5-7-7\------7-5-7--------|
E|--0-------------0------------0-------------0----------------|

Bridge (1:45)
e|--7~----5~----3~----3~----3--3--7~----5~----3~----3~---------|
B|--8~----8~----3~----5~----3--5--8~----8~----3~----5~---------|
G|-------------------------------------------------------------|
D|-------------------------------------------------------------|
A|--------------------------------------------------------5b7--|
E|-------------------------------------------------------------|

Solo (2:04)
e|----------------------------------------------------------------------------------|
B|----------------------------------------------------------------------------------|
G|--12--9----9---12-12-11--9-12v------9------9------------14b16r14-12--14-14-14-12--|
D|--------12-----------------------------12----12---9--7----------------------------|
A|----------------------------------------------------------------------------------|
E|----------------------------------------------------------------------------------|

(2:19)
e|--10-10-10-10--9---9--9--9-----------------------|
B|--8--8--8--8---8---8--8--8--12v--14v--15v--17v---|
G|--9--9--9--9---9---9--9--9-----------------------|
D|--7--7--7--7---7---7--7--7-----------------------|
A|-------------------------------------------------|
E|-------------------------------------------------|

Final Chorus (2:28)
Guitar 1 plays intro chords
Guitar 2 riff below x2
e|----------------------------------------------------------------|
B|----------------------------------------------------------------|
G|----------------------------------------------------------------|
D|----5-------------5------------5-------------5--------77-5------|
A|------7-5-7-7\------7-5-7-7------7-5-7-7\------7-5-7------------|
E|--0-------------0------------0-------------0--------------------|

(2:38 and 2:59)
e|----------------------------------------------------------------|
B|----------------------------------------------------------------|
G|----------------------------------------------------------------|
D|----5-------------5------------5-------------5-----5-----5------|
A|------7-5-7-7\------7-5-7-7------7-5-7-7\------7-5---7-5---7-5--|
E|--0-------------0------------0-------------0--------------------|

End on E

Suggest correction
comments
print report bad tab
3 comments total.
0 reply
x_hud 59 Jun 27, 2014 04:41 AM

I believe the intro goes like this



e|--7-7-7-7--7-7-7-7--10-10-10-10--9--9--9--9--9--9--9--9---|
B|--8-8-8-8--8-8-8-8--8--8--8--8---8--8--8--8--8--8--8--8---|
G|--9-9-9-9--9-9-9-9--9--9--9--9---9--9--9--9--9--9--9--9---|
D|--9-9-9-9--9-9-9-9--9--9--9--9---9--9--9--9--9--9--9--9---|
A|----------------------------------------------------------|
E|----------------------------------------------------------|

+3 reply
jb7585 10 Nov 13, 2014 04:24 AM

e|--7-7-7-7--x-x-x--7-7-7-7--x-x-x--10-10-10-10--x-x-x--9--9--9--9--9--9--9--9---|
B|--8-8-8-8--x-x-x--8-8-8-8--x-x-x--8--8--8--8---x-x-x--8--8--8--8--8--8--8--8---|
G|--9-9-9-9--x-x-x--9-9-9-9--x-x-x--9--9--9--9---x-x-x--9--9--9--9--9--9--9--9---| x2
D|--9-9-9-9--x-x-x--9-9-9-9--x-x-x--7--7--7--7---x-x-x--7--7--7--7--7--7--7--7---|
A|-----------x-x-x-------------------------------x-x-x---------------------------|
E|-----------x-x-x-------------------------------x-x-x---------------------------|

I think this is correct.

Russell goes back to playing this over the chorus too thanks

0 reply
lukeplummy 10 Apr 02, 2015 08:08 AM

I think the solo is played an octave down from what is tabbed, seeing then play live and listening to the track, it just sounds too high.

guest
You may want to rate the tab now too:
select rating
Wanna post a correction for this tab? Suggest correction