Oops, an error
Loading. Please wait.

Hometowns tab

version 1
version 1

Whole song

142 views 1 this week
no commentswrite comment
1 2 3 4 5
2 more votes to show rating
add to favorites
×
Save as Personal and add changes to this tab that will be seen only by you. Learn more ›
×
You can save this tab as Personal to edit and correct it or add notes. All changes will be seen only by you. Learn more »
launch autoscroll
font size
0
reset
how to read this tab
guitar tuner
edit
Autoscroll
slow
fast
+/-
esc
set tempo
stop
Author
-------------------------------------------------------------------------------
                             HOMETOWNS - Band of Skulls
-------------------------------------------------------------------------------
Tabbed by: James Davies

Tuning: Standard

Verse & Intro
   D                    E                    G                 D
e|------------------------------------------------------------------------------|
B|------------------------------------------------------------------------------|
G|----11------11-----11-----9-----9------9------4-----4-----------7------7------|
D|-------0------0-------------0-----0-------------0-----0-----------0------0----|
A|--12-----12-----12-----11-----11-----11-----5-----5-----5-----9-----9------9--|
E|------------------------------------------------------------------------------|


Guitar 2 in 3rd & 4th Verses
   D                E                 G                     D
e|--------------------7-----7------7---10------10------12----5----5---5----|
B|---7-----7-----7------9-----9-----------12------12-----------7----7------|
G|-----7-----7-------------------------------------------------------------|
D|-------------------------------------------------------------------------|
A|-5-----5-----5----7-----7-----7----10------10-----10------5----5---5-----|
E|-------------------------------------------------------------------------|


Chorus
   G                       D
e|:----------------------------------------------:|
B|:----------------------------------------------:|
G|:-----0-----0------0-----2------2-----2--------:|
D|:-------0-----0------------0------0------------:|
A|:--2------2-----2-----0------0------0----------:|
E|:----------------------------------------------:|

   G                 D        G         D
e|---------------------------------------------------------------------------|
B|---------------------------------------------------------------------------|
G|---0-----0-----0-----2--------0----------7------7------7---7------7-----7--|
D|-----0-----0-----------0--------0----------0------0----------0------0------|
A|-2-----2-----2-----0-----0-------------9------9------9----9-----9-----9----|
E|-----------------------------3------3--------------------------------------|


Bridge
  F#m                                 G
e|---------------------------------------------------------------------------|
B|---2-----2-----2----2-----2------2-----3------3------3----3----3-----3-----|
G|-----2-----2----------2-----2------------4------4-----------4----4---------|
D|---------------------------------------------------------------------------|
A|-4-----4-----4----4-----4-----4--------------------------------------------|
E|-------------------------------------3-----3-------3----3-----3-----3------|

   Bm                                       E
e|---------------------------------------------------------------------------|
B|---7-------7-----7-----7------7-------7-----0-----0------0----0------------|
G|-----7-------7-----------7------7-------------1------1----------1----------|
D|---------------------------------------------------------------------------|
A|---------------------------------------------------------------------------|
E|-7------7------7-----7-----7-------7------0-----0------0----0------0--0--2-|

G                                     A
e|----------------------------------------------------------------------|
B|---3-----3-----3----3-----3-----3----2-----2-----2--(2)---------------|
G|-----0-----0----------0-----0----------2-----2------(2)---------------|
D|----------------------------------------------------------------------|
A|------------------------------------0----0-----0-----0-(hold)---------|
E|-3-----3-----3----3-----3-----3---------------------------------------|


Final Verse
   D                     E                   G                D
e|-----------------------------------------------------------------|
B|-----------------------------------------------------------------|
G|----11------11-----11-----9-----9------9------4-----4--------11--|
D|-------0------0-------------0-----0-------------0-----0------0---|
A|--12-----12-----12-----11-----11-----11-----5-----5-----5----12--|
E|-----------------------------------------------------------------|

Lyrics

Verse 1
In Hometowns, suburban, and transient
Romances, just like this, happen again 'til

Chorus
All your lovers
Gather round you
To see what you have become

Verse 2
No idea, why you're here, all on your own
It's just kids having, more kids to, say from being alone, 'til

Chorus
All your lovers
Gather round you
To see what you have become

Bridge
I was looking for the one
But I guess you'll do

Verse 3
No idea, why you're here, all on your own
It's just kids having, more kids to, say from being alone, 'til

Chorus
All your lovers
Gather round you
To see what you have become

Bridge
I was looking for the one
But I guess you'll do

Verse 4
In Hometowns, suburban, and transient
Romances, just like this, happen again 'til

            
            
Suggest correction
Creating personal tab
Creating personal tab
You can edit any tab online and save it as your Personal.

You can edit, replace or remove any tab part or add personal notes – all changes will be seen only by you.

Personal tabs can be accessed anytime from any device, even offline.
Learn more »
Give kudos to tab author, rate the tab!
1 2 3 4 5
comments
print report bad tab
guest
You may want to rate the tab now too:
select rating
Wanna post a correction for this tab? Suggest correction