Oops, an error
Loading. Please wait.

Hoochie Coochie Tab

2,015 views 12 this week
no commentswrite comment
1 2 3 4 5
excellent!
x 4
add to favorites
launch autoscroll
font size
0
reset
how to read this tab
guitar tuner
Autoscroll
slow
fast
+/-
esc
set tempo
stop
Help us to improve Ultimate-Guitar.com Take our survey!
×
Contributor
Difficulty
ez1515 137
novice
Tabbed by: Eric

Tuning: Standard

Intro (palm muted)              
e|---------------------------------|
B|---------------------------------|
G|---------------------------------|
D|---------------------------------| x3
A|--77-77-77-77-77-77-5h6h7-5h6h7--|
E|--00-00-00-00-00-00--------------|

e|---------------------------------|
B|---------------------------------|
G|---------------------------------|
D|---------------------------------|
A|--77-77-77-77-77-77-77-77--------|
E|--00-00-00-00-00-00-00-00--------|
    
Verse (0:12)
e|---------------------------|-------------------------|
B|---------------------------|-------------------------|
G|---------------------------|-------------------------|
D|---------------------------|--------------------0-0--| x3
A|--77-77-77-77-77-77-77-77--|--77-77-77-77-77-77-2-2--|
E|--00-00-00-00-00-00-00-00--|--00-00-00-00-00-00-3-3--|
    
e|---------------------------|
B|---------------------------|
G|---------------------------|
D|---------------------------|
A|--77-77-77-77-77-77-77-77--|
E|--00-00-00-00-00-00-00-00--|

e|--------------------------------------------------------------------------------|
B|------------------------------------------------------------1-1-1-1-------------|
G|------------------------------------------------------------0-0-0-0-2-2-2-2-----|
D|--------------------0-0-0-0-------------0-0-0-0-------------2-2-2-2-2-2-2-2-2~--|
A|--77-77-77-77-77-77-2-2-2-2-22-22-22-22-2-2-2-2-22-22-22-22-3-3-3-3-0-0-0-0-2~--|
E|--00-00-00-00-00-00-3-3-3-3-00-00-00-00-3-3-3-3-00-00-00-00-----------------0~--|

Chorus (0:51)
e|---------------------------------------------|
B|---------------------------------------------|
G|---------------------------------------------| x3
D|---------------------------------------------|
A|--5h6h7-----5h6h7-----5h6h7-----5h6h7-5h6h7--|
E|--------0-0-------0-0-------0-0--------------|

e|---------------------------------------------|
B|---------------------------------------------|
G|---------------------------------------------|
D|-----------------------0-0-0-0---------------|
A|--5h6h7-----5h6h7------2-2-2-2---------------|
E|--------0-0-------0-0--3-3-3-3---------------|

Verse (1:04)

Chorus (1:43)

Bridge (1:56)
e|-----------------------------------------|
B|-----------------------------------------|
G|--4~----4/6~----6/8~----8/9~-------------|
D|--x-----x-x-----x-x-----x-x-----0-0-0-0--|
A|--2~----2/4~----4/6~----6/7~----2-2-2-2--|
E|--------------------------------3-3-3-3--|

Outro
(2:10)
e|-----------------------------------------------|
B|-----------------------------------------------|
G|-----------------------------------------------| x3
D|-----------------------------------------------|
A|--5h6h7-----5h6h7-----5h6h7-----5h6h7-5h6h7----|
E|--------0-0-------0-0-------0-0----------------|

e|-----------------------------------------------|
B|-----------------------------------------------|
G|----------------------------------5h6h7--------|
D|----------------------------5h6h7-------5h6h7--|
A|--5h6h7-----5h6h7-----5h6h7--------------------|
E|--------0-0-------0-0--------------------------|

e|-----------------------------------------------|
B|-----------------------------------------------|
G|-----------------------------------------------| x3
D|-----------------------------------------------|
A|--5h6h7-----5h6h7-----5h6h7-----5h6h7-5h6h7----|
E|--------0-0-------0-0-------0-0----------------|

e|-----------------------------------------------|
B|-----------------------------------------------|
G|-----------------------------------------------|
D|-----------------------0-0-0-0-----------------|
A|--5h6h7-----5h6h7------2-2-2-2-----------------|
E|--------0-0-------0-0--3-3-3-3-----------------|

comments
print report bad tab
I want to post or [tab]
guest
You may want to rate the tab now too:
select rating
Please do not post tabs as comments. Select "correction" instead!