Oops, an error
Loading. Please wait.

I Feel Like Ten Men Nine Dead And One Dying Tab

version 1
version 1

Whole song

Interactive

1,365 views 3 this week
no commentswrite comment
1 2 3 4 5
1 last vote to show rating
add to favorites
launch autoscroll
font size
0
reset
how to read this tab
guitar tuner
Autoscroll
slow
fast
+/-
esc
set tempo
stop
Help us to improve Ultimate-Guitar.com Take our survey!
×
Author
Difficulty
intermediate
Tabbed by: Eric

Tuning: Standard

Intro
    Em 
e|--0-----------|
B|--0-----------|
G|--0-----------| x2
D|--2-----------|
A|--2--------2--|
E|--0----0h3----|

Verse (guitar comes in at 0:21)
    Am   Em   Em            Am   Em
e|--0----0----0-------------0----0--|
B|--1----0----0-------------1----0--|
G|--2----0----0-------------2----0--|
D|--2----2----2-------------2----2--|
A|--0----2----2--------2----0----2--|
E|--0----0----0----0h3------0----0--|

Pre-Chorus (0:42)
e|--555555555555-------------------------|
B|---------------8888-5555555555555555---|
G|---------------------------------------|
D|---------------------------------------|
A|---------------------------------------|
E|---------------------------------------|

e|--555555555555-------------------------|
B|---------------8888-55555555-44444444--|
G|---------------------------------------|
D|---------------------------------------|
A|---------------------------------------|
E|---------------------------------------|

Chorus (0:56)
e|--------------------------------|
B|--------------------------------|
G|-----/9----/11----/5----/14-13--| x3
D|--------------------------------|
A|--22----22-----22----22---------|
E|--00----00-----00----00---------|

e|--------------------------------|
B|--------------------------------|
G|-----/9----/11----/5~-----------|
D|--------------------------------|
A|--22----22-----22---------------|
E|--00----00-----00---------------|

Repeat Intro/Verse (1:25)

Pre-Chorus (2:01)

Chorus (2:16)

Solo (2:46)
Guitar 1 plays Chorus x4
Guitar 2 (with octave pedal)
e|--15-12-15-10-12-10----------------------15-12-15-10-12-10-----------------------|
B|--------------------12--12b--12b-12b-----------------------12--10b11r10-8b9r8----|
G|-------------------------------------12v--------------------------------------9--| x2
D|---------------------------------------------------------------------------------|
A|---------------------------------------------------------------------------------|
E|---------------------------------------------------------------------------------|

(3:01)
e|---------------------------------------------------------------------------------|
B|--8-10-10/12-12b13r12-8--7--5--3--1--0-------------------------------------------|
G|----------------------------------------2-0--------------------------------------|
D|---------------------------------------------4-2-0-------------------------------|
A|----------------------------------------------------3v------------2v-------------|
E|---------------------------------------------------------------------------------|

Repeat variations of Intro until end
Suggest correction
Give kudos to tab author, rate the tab!
1 2 3 4 5
comments
print report bad tab
guest
You may want to rate the tab now too:
select rating
Wanna post a correction for this tab? Suggest correction