Oops, an error
Loading. Please wait.

I Know What I Am Bass Tab

version 1
version 1

Whole song

7,196 views 9 this week
no commentswrite comment
1 2 3 4 5
3 more votes to show rating
add to favorites
launch autoscroll
font size
0
reset
guitar tuner
Autoscroll
slow
fast
+/-
esc
set tempo
stop
Help us to improve Ultimate-Guitar.com Take our survey!
×
-------------------------------------------------------------------------------
			                         I Know What I Am - Band of Skulls
-------------------------------------------------------------------------------

Tabbed By : Shaye Marshall
e-mail: shayemarshall@hotmail.com

Tuning: EADG

This is only my 2nd tab so hopefully it's right. If not, correct me please.
    
    Verse
G|---------------------------------------------------------------------------|
D|---------------------------------------------------------------------------|
A|--5(let ring)------------5(let ring)------------5(let ring)----------------|
E|----------------12(x28)----------------12(x28)-----------------------------|
 
    Chorus
G|---------------------------------------------------------------------------|
D|---------------------------------------------------------------------------|
A|--0(x8)--7(x8)--0(x8)--7(x4)--14(let ring)---------------------------------|
E|---------------------------------------------------------------------------|

    Verse 2
G|---------------------------------------------------------------------------|
D|---------------------------------------------------------------------------|
A|-----------5(let ring)------------5(let ring)------------------------------|
E|--12(x28)----------------12(x28)-------------------------------------------|

    Chorus
G|---------------------------------------------------------------------------|
D|---------------------------------------------------------------------------|
A|--0(x8)--7(x8)--0(x8)--7(x4)--14(let ring)---------------------------------|
E|---------------------------------------------------------------------------|


G|---------------------------------------------------------------------------|
D|---------------------------------------------------------------------------|
A|---------------------------------------------------------------------------|
E|--12(x9)--10(x5)--12(x8)--10(x6)-------------------------------------------|

G|---------------------------------------------------------------------------|
D|---------------------------------------------------------------------------|
A|---------------------------------------------------------------------------|
E|--12(x14)--10(x6)--5(x6)--12(x6)--10(x6)--5(x6)----------------------------|

G|---------------------------------------------------------------------------|
D|---------------------------------------------------------------------------|
A|---------------------------------------------------------------------------|
E|--12(let ring)--10(let ring)--5(let ring)--0(let ring)---------------------|

| /  slide up
| \  slide down
| h  hammer-on
| p  pull-off
| ~  vibrato
| +  harmonic
| x  Mute note
===============================================================================
Suggest correction
Give kudos to tab author, rate the tab!
1 2 3 4 5
comments
print report bad tab
guest
You may want to rate the tab now too:
select rating
Wanna post a correction for this tab? Suggest correction