Oops, an error
Loading. Please wait.

Impossible Tab

2,398 views 1 this week
no commentswrite comment
1 2 3 4 5
excellent!
x 3
add to favorites
launch autoscroll
font size
0
reset
how to read this tab
guitar tuner
Autoscroll
slow
fast
+/-
esc
set tempo
stop
Help us to improve Ultimate-Guitar.com Take our survey!
×
Contributor
adslam3 1,500
----------------------------------------------------------------------------
                             Impossible - Band of Skulls
----------------------------------------------------------------------------
Tabbed by: adslam3

Tuning: Standard

An easy song but a great one.  This is the studio version from their
debut LP.

The time stamps under the sections are where you hear those parts.


 INTRO
This 8 times | Repeat this as necessary, it happens a lot in this song
e|-----------|------5h7----------------------------------------------------|
B|-----------|-----------8h10----------------------------------------------|
G|-------7b~-|-----------------9h11--7p5p0---------------------------------|
D|-0-0-0-----|---------------------------^---------------------------------|
A|-----------|---------------------------|---------------------------------|
E|-----------|----------------------The "0" might be unintentional---------|
  (0:00-0:08)  (0:09-0:33, 1:02-1:09, 2:55-4:35)

VERSE
 This is all he plays, sometimes give vibrato on the 7 on the G.
e|-------------------------------------------------------------------------|
B|-------------------------------------------------------------------------|
G|---7-7-7-7-7-7-7-7-7b----------------------------------------------------|
D|---0-0-0-0-0-0-0-0-0-----------------------------------------------------|
A|-------------------------------------------------------------------------|
E|-------------------------------------------------------------------------|
  (0:34-1:01, 1:10-1:35, 1:45-2:20, 2:30-2:36)

CHORUS - "I am a man..I am a man..."
e|-3---------------3---------------3---------------3-----------------------|
B|-3---------------3---------------3---------------3-----------------------|
G|-0---------------0---------------0---------------0-----------------------|
D|-0---------------0---------------0---------------0-----------------------|
A|-2---------------2---------------2---------------2-----------------------|
E|-3-3-3-3-3-3-3-3-3-3-3-3-3-3-3-3-3-3-3-3-3-3-3-3-3-----------------------|
   (1:36-1:44, 2:21-2:29, 2:37-2:45)

There you go, very easy song.  If you are having trouble, then watch some
of their live videos on youtube.

************************************

| /   slide up
| \   slide down
| h   hammer-on
| p   pull-off
| ~   vibrato
| +   harmonic
| x   Mute note
| b   Bend
| pb  Pre-bend
| br  Bend release
| pbr Pre-bend release
| brb Bend release bend

************************************
comments
We did not receive enough feedback on this tab! Please rate:
print report bad tab
1 2 3 4 5
I want to post or [tab]
guest
You may want to rate the tab now too:
select rating
Please do not post tabs as comments. Select "correction" instead!