Oops, an error
Loading. Please wait.

Lay My Head Down Tab

version 2
version 2

Whole song

1,643 views 12 this week
1 commentread comment
1 2 3 4 5
excellent!
x 5
add to favorites
launch autoscroll
font size
0
reset
how to read this tab
guitar tuner
Autoscroll
slow
fast
+/-
esc
set tempo
stop
Help us to improve Ultimate-Guitar.com Take our survey!
×
intro:

e|--------------------------------------------------|
B|--------------------------------------------------|
G|--9-7-9---7-9--5-7--3-5--2-3--0-2-----------------|   
D|------------------------------------3-------------|
A|--------------------------------------------------|
E|--------------------------------------------------|


Verse:

Dm                   Am
Was I asleep did you save me from disaster

Dm                       Am
Wake up and tell me I'm just imagining

Dm                               Am                       Gm   Gm,Am,Bb
Thought I would brave it cause I don't wanna live in doubt


Dm                       Am
Dreamt of escape but I'm nowhere near the feeling

Dm                     Am
Fell from a high but I never hit the ground

Dm                            Am                   Gm    Gm,Am,Bb
Can't hold the weight of your words heavy on my mind


CHORUS:
             Dm                      Am
So I'm gonna lay my head down on your shoulder and run,

        Gm                 Gm,Am,Bb
Keep it away from my soul, I'm not holding it all

          Dm                       Am
I'm gonna lay my head down on your shoulder and run,

            Gm                     Gm,Am,Bb  
All that we know will get old, and with you I'll unfold
          Dm
I'm gonna lay my head down


(play intro 3x)

VERSE:
Dm                    Am
Open your hand I know your heart line's the deepest

Dm                    Am
You will replace it a new love you will find

Dm                   Am                          Gm   Gm,Am,Bb
Say all you like but I'll make it better on my own


Chorus

             Dm                      Am
So I'm gonna lay my head down on your shoulder and run,

        Gm                 Gm,Am,Bb 
Keep it away from my soul, I'm not holding it all

          Dm                       Am
I'm gonna lay my head down on your shoulder and run,

            Gm                   Gm,Am,Bb  
All that we know will get old, and with you I'll unfold
          Dm
I'm gonna lay my head down


(Interlude)


SOLO:

e|----------------------------------|---------------------------------------|
B|-9b--9b-9b-9br--8b----------------|--9b--9b-9b-9br-8b---------------------|
G|------------------10-9--9-10-9----|-------------------10-9-9-10-9h10p9----|
D|-------------------------------10~|---------------------------------------|
A|----------------------------------|---------------------------------------|
E|----------------------------------|---------------------------------------|


e|------------------------------------------------------------------------|
B|-9b--9b-9b-9br--8b------------------------------------------------------|
G|------------------10-9--9-10-9------------------------------------------|
D|-------------------------------10-//12---14-12-14-12-10-8-7\5-3\2\0-----|
A|--------------------------------------------------------------------3\1-|
E|------------------------------------------------------------------------|


Outro chorus

             Dm                       Am
So I'm gonna lay my head down on your shoulder and run,

        Gm                 Gm,Am,Bb 
Keep it away from my soul, I'm not holding it all

          Dm                       Am
I'm gonna lay my head down on your shoulder and run,

            Gm                  Gm,Am,Bb  
All that we know will get old, and with you I'll unfold

          Dm
I'm gonna lay my head down
Suggest correction
What's this?
You can suggest a correction to this tab. Community and Mods will review your correction and vote to approve or reject it.
comments
print report bad tab
1 comment total.
0 reply
striker19191 13 wrote on August 4 2015, 10:09 pm

Anyone have an idea on how to play the interlude? The way I've been doing it is just jamming do a drop D power chord and adding random notes here and there, but if someone had a more accurate way to do it that'd be awesome

guest
You may want to rate the tab now too:
select rating
Please do not post tabs as comments. Select "correction" instead!