Oops, an error
Loading. Please wait.

Patterns Bass Tab

6,454 views 15 this week
no commentswrite comment
1 2 3 4 5
accurate
x 4
add to favorites
launch autoscroll
font size
0
reset
guitar tuner
Tab Pro tools
  • play this tab
  • loop segment
  • change instrument
  • show fretboard
  • metronome
×
Best way to learn
"Patterns"
Autoscroll
slow
fast
+/-
esc
set tempo
stop
Contributor
Great song! It's my favorite on the entire album! Hope you enjoy!
Intro
|--------------------------------------------------------|
|--------------------------------------------------------|
|----------------------------------------------------0---|
|-0-0-0-0-0---0-0-0-0-0---0-0-0-0-0---0-0-0-0-0--2-3-----| X2

Verse
|----------------------------------------------------------------|
|----------------------------------------------------------------|
|-7-7-7-7-7-7-7-7-7-7-7-7-7-7/-3-3-3-3-3-3-3-3-2-2-2-2-2-2-2-2---| X3
|----------------------------------------------------------------|
then it goes into this little bass line
|----------------------------------------------------|
|----------------------------------------------------|
|-7-7-7-7-5-5-5-5-2-2-2-2-7-7-7-7-5-5-5-5-2-2-2-2----|
|----------------------------------------------------|

|-------------------------------------|
|-------------------------------------|
|-3-3-3-3-----3-3-2-2-2-2-3-3---------|
|---------3-3-----------------3-3-----|

Chorus
|--------------------------------------------------------|
|--------------------------------------------------------|
|---------------------------0-0-0-0-0---0-0-0-0-0----0---|
|-0-0-0-0-0---0-0-0-0-0--------------------------2-3-----| X2

interlude?/bridge idk which to call it same as the prechorus
|----------------------------------------------------|
|----------------------------------------------------|
|-7-7-7-7-5-5-5-5-2-2-2-2-7-7-7-7-5-5-5-5-2-2-2-2----|
|----------------------------------------------------|

|-------------------------------------|
|-------------------------------------|
|-3-3-3-3-----3-3-2-2-2-2-3-3---------| X2
|---------3-3-----------------3-3-----|
then another verse and chorus

Bridge
|----------------------------------------------|
|----------------------------------------------|
|-2-2-------2-2--------3-3-------3-3-----------| X6
|-----3-2-0-----3-2-0------3-2-0-----3-2-0-----|
then it climbs up the neck
|-----------------------------------------|
|-----------------------------------------|
|-5-5-------5-5-------7-7--------7-7------|
|-----3-2-0-----3-2-0-----3-2-0-----3-2-0-|
then make it sound big!
|------------------------------------------------|
|------------------------------------------------|
|---7-7--------7-7------3-3---------3-3------0---|
|-------3-2-0-----3-2-0------3-2-0------2-3------|
and play the final chorus like the first one except ring out your notes louder and there 
have it and I hope you appreciated this tab Band of Skulls for life!
comments
print report bad tab
I want to post or [tab]
guest
You may want to rate the tab now too:
select rating
Please do not post tabs as comments. Select "correction" instead!