Oops, an error
Loading. Please wait.

Patterns Tab

version 2
version 2

Whole song

3,535 views 3 this week
no commentswrite comment
1 2 3 4 5
excellent!
x 4
add to favorites
launch autoscroll
font size
0
reset
how to read this tab
guitar tuner
Autoscroll
slow
fast
+/-
esc
set tempo
stop
Help us to improve Ultimate-Guitar.com Take our survey!
×
Author
Difficulty
novice
Legend

* = Palm muting


Intr
--------2-0----------2-0----------2-0-------------|
--------------------------------------------------|
--------------------------------------------------|  x2
2-2-2-2------2-2-2-2------2-2-2-2------2-2-2-5--7-|
2-2-2-2------2-2-2-2------2-2-2-2------2-2-2-5--7-|
0-0-0-0------0-0-0-0------0-0-0-0------0-0-0-3--5-|


verse (do this with Palm muting)----------------------|
                                           
----------------------------------------------------------------|
----------------------------------------------------------------|
9-9-9-9-9-9-9-9-9-9-9-9-9-9-9-9-5-5-5-5-5-5-5-5-4-4-4-4-4\5-4\5-|
9-9-9-9-9-9-9-9-9-9-9-9-9-9-9-9-5-5-5-5-5-5-5-5-4-4-4-4-4\5-4\5-| x2
7-7-7-7-7-7-7-7-7-7-7-7-7-7-7-7-3-3-3-3-3-3-3-3-2-2-2-2-2\3-2\3-|
----------------------------------------------------------------|
* * * * * * * * * * * * * * * * * * * * * * * * * * * *

(below bass line) no Palm muting
----------------------------------------------------------------|
----------------------------------------------------------------|
9-x-9-x-9-x-9-x-9-x-9-x-9-x-9-x-5-x-5-x-5-x-5-x-4-x-4-x-4\5-4\5-| 
9-x-9-x-9-x-9-x-9-x-9-x-9-x-9-x-5-x-5-x-5-x-5-x-4-x-4-x-4\5-4\5-| x2
7-x-7-x-7-x-7-x-7-x-7-x-7-x-7-x-3-x-3-x-3-x-3-x-2-x-2-x-2\3-2\3-|
----------------------------------------------------------------|

chorus

--------2-0----------2-0----------2-0-------------|
--------------------------------------------------|
--------------------------2-2-2-2------2-2--------|  x2
2-2-2-2------2-2-2-2------2-2-2-2------2-2-2-5--7-|
2-2-2-2------2-2-2-2------0-0-0-0------0-0-2-5--7-|
0-0-0-0------0-0-0-0-----------------------0-3--5-|

-----------------------------------------------------------------------|
-----------------------------------------------------------------------|
--9---9---11---12----9---9---11---12---5---5---7---9---4---4---5---7---|
-----------------------------------------------------------------------|  x2
7---7---9----10---7---7---9---10----3---3---5---7---2---2---3---5------|
-----------------------------------------------------------------------|

verse
(bass first line)
-x~
-x~
-9~   (let ring)
-x~
-7~
--

after "666" (do this with Palm muting)----------------|
                                           
----------------------------------------------------------------|
----------------------------------------------------------------|
9-9-9-9-9-9-9-9-9-9-9-9-9-9-9-9-5-5-5-5-5-5-5-5-4-4-4-4-4\5-4\5-| 
9-9-9-9-9-9-9-9-9-9-9-9-9-9-9-9-5-5-5-5-5-5-5-5-4-4-4-4-4\5-4\5-| 
7-7-7-7-7-7-7-7-7-7-7-7-7-7-7-7-3-3-3-3-3-3-3-3-2-2-2-2-2\3-2\3-|
----------------------------------------------------------------|
* * * * * * * * * * * * * * * * * * * * * * * * * * * *

with Palm muting------------------------------|
                                   
----------------------------------------------------------------|
----------------------------------------------------------------|
9-9-9-9-9-9-9-9-9-9-9-9-9-9-9-9-5-5-5-5-5-5-5-5---4---4-4\5-4\5-| 
9-9-9-9-9-9-9-9-9-9-9-9-9-9-9-9-5-5-5-5-5-5-5-5---------4\5-4\5-|
7-7-7-7-7-7-7-7-7-7-7-7-7-7-7-7-3-3-3-3-3-3-3-3-2---2---2\3-2\3-|
----------------------------------------------------------------|
* * * * * * * * * * * * * * * * * * * * * * * *

chorus

--------2-0----------2-0----------2-0-------------|
--------------------------------------------------|
--------------------------2-2-2-2------2-2--------|  x2
2-2-2-2------2-2-2-2------2-2-2-2------2-2-2-5--7-|
2-2-2-2------2-2-2-2------0-0-0-0------0-0-2-5--7-|
0-0-0-0------0-0-0-0-----------------------0-3--5-|


bridge

let ring
-x~------12~------7~------12~-|
-x~------12~------8~------12~-|
-9~------12~------9~------12~-|
-x~------12~------9~------12~-|
-7~---------------------------|
------------------------------|


then after long bass riff

(The first two agreements (the agreement of B) with Palm muting)

---------------------------------------------------|
---------------------------------------------------|
-4-4-------9-9-------9-9-------5-5-------5-5-------|
-4-4-5-4-2-9-9-5-4-2-9-9-5-4-2-5-5-5-4-2-5-5-2-5--7|
-2-2-5-4-2-7-7-5-4-2-7-7-5-4-2-3-3-5-4-2-3-3-2-5--7|
-----3-2-0-----3-2-0-----3-2-0-----3-2-0-----0-3--5|
 * *

chorus

--------2-0----------2-0----------2-0-------------|
--------------------------------------------------|
--------------------------2-2-2-2------2-2--------|  x2
2-2-2-2------2-2-2-2------2-2-2-2------2-2-2-5--7-|
2-2-2-2------2-2-2-2------0-0-0-0------0-0-2-5--7-|
0-0-0-0------0-0-0-0-----------------------0-3--5-|
Suggest correction
comments
print report bad tab
guest
You may want to rate the tab now too:
select rating
Please do not post tabs as comments. Select "correction" instead!